Guitar Tabs, Chords and Lyrics


All The Way   Ramones



Intro
E-----------------------------------------------------------|
B-------0-------------0-------------------------------------|
G-------1-------------1-------------------------------------|
D-7-7-7-2-7-7-5-5-5-4-2-------------------------------------|
A-7-7-7-2-7-7-5-5-5-4-2-------------------------------------|
E-5-5-5-0-5-5-3-3-3-2-0-------------------------------------|
do that 4 times and on the fourth time let the E chord ring.
little bridge thing
E---------------------------------------|
B---------------------------------------|
G-----4-4-----6-6-----------------------|
D-4-4-4-4-4-4-6-6-----------------------|
A-4-4-2-2-4-4-4-4-----------------------|
E-2-2-----2-2---------------------------|
4 times
Verse
E--------------------------------------------------|
B--------------------------------------------------|
G---------4-4-4-4----------------------------------|
D-4-4-4-4-4-4-4-4----------------------------------|
A-4-4-4-4-2-2-2-2----------------------------------|
E-2-2-2-2----------1h2-2-1h2-2-1h2-2-1h2-2---------|
do that twice
2nd part of that verse
E-------------------------------------------------------------------|
B-------------------------------------------------------------------|
G-4-4-4-4---------4-4-4-4---------4-4-4-4---------6-6-6-6-----------|
D-4-4-4-4-4-4-4-4-4-4-4-4-4-4-4-4-4-4-4-4-6-6-6-6-6-6-6-6-----------|
A-2-2-2-2-4-4-4-4-2-2-2-2-4-4-4-4-2-2-2-2-6-6-6-6-4-4-4-4-----------|
E---------2-2-2-2---------2-2-2-2---------4-4-4-4-------------------|
do that once


Chorus thing
E----------------------------------------------------------|
B----------------------------------------------------------|
G---------8-8-8-8---------6-6-6-6--------------------------|
D-9-9-9-9-8-8-8-8-9-9-9-9-6-6-6-6--------------------------|
A-9-9-9-9-6-6-6-6-9-9-9-9-4-4-4-4--------------------------|
E-7-7-7-7---------7-7-7-7----------------------------------|

Intro 4x
little bridge thing 4x
Verse 2x
Chorus thing 1x
little bridge thing 4x
Verse 2x
Chorus thing 1x
little bridge thing 8x


Important: The song above is NOT stored on the Chordie server. The original song is hosted at www.guitaretab.com. Chordie works as a search engine and provides on-the-fly formatting. Chordie does not index songs against artists'/composers' will. To remove this song please click here.

This song is displayed as text-only. Transposing and tuning is only available for chordpro-songs.

Login - add to songbook

Rating click stars to rate

Layout
Accuracy

SHARE PAGE  




You need to log in to post comments