eToCache5 = ""; ?> Howling At The Moon by Ramones - guitar chords, guitar tabs and lyrics - chordie

Howling At The Moon

Ramones

 A
Sha-la-la-la, sha-la-la-la-la-la

 D
Sha-la-la-la, sha-la-la-la-la-la

 AD
Sha-la-la-la, sha-la-la-la-la-la


 A
 Ships are docking, planes are landing
 DE
 A never ending supply
 A
 No more nargo, no more gangster
 DE
 Conservatives can cry

Chorus

 DE
   I took the law and threw it away
 ADE
   Cause there's nothing wrong it's just for play
 DE
   Theres no law, no law anymore
 ADE
   I want to steal from the rich and give to the poor

 A
Sha-la-la-la, sha-la-la-la-la-la

 D
Sha-la-la-la, sha-la-la-la-la-la


It was glowing, glowing, glowing
Glowing in the dark
It was sparkling, sparkling
Sparkling, sparking in the night

Repeat Chorus

 F#DE
 Winter turns to summer
Sadness turns to fun
Keep the faith, baby
You broke the rules and won

 A
Sha-la-la-la, sha-la-la-la-la-la

 D
Sha-la-la-la, sha-la-la-la-la-la

 AD
Sha-la-la-la, sha-la-la-la-la-la


Easy Solo

e--------------|-----------------|--------------------|
B--------------|-----------------|--------------------|
G--------------|-----------------|--------------------|   [ solo ] x2
D--------------|-----------------|--------------------|
A--------------|-----------------|-----9--7-----------|
E--7--5--7--5--|--7--5--7--9--5--|--5--------9--7--0--|


Keep it glowing, glowing,glowing
I'm not hurting anyone
Keep it glowing, smoking, glowing
I'm howling at the moon

Chorus

 DE
 Oh baby, oh baby
Oh baby, oh baby

I took the law and threw it away
Cause there's nothing wrong it's just for play

 DE
 I'm smoking, baby
I'm smoking, oh baby

Theres no law, no law anymore
I want to steal from the rich and give to the poor

 A
Sha-la-la-la, sha-la-la-la-la-la

 D
Sha-la-la-la, sha-la-la-la-la-la

 AD
Sha-la-la-la, sha-la-la-la-la-la


( repeat till the end )

Learn Your Chords!!!
 ADEF#
e------------------------------------------------|
B------------------------------------------------|
G--------7----9----4-----------------------------|
D---7----7----9----4-----------------------------|
A---7----5----7----2-----------------------------|
E---5--------------------------------------------|				



A D E F#
variations - click chord images
Transpose chords:
Tuning:
Cool service:
View: Size:
A  A  A
Rating:
Layout:
  • Currently 2/5 Stars.
  • 1
  • 2
  • 3
  • 4
  • 5
 
Accuracy:
  • Currently 5/5 Stars.
  • 1
  • 2
  • 3
  • 4
  • 5
 
click stars to rate
Chordie recommends:
Check out JamPlay.com for online video guitar lessons
Songbook:
Login to add this song to your songbook
Support the artist
Preview/buy this song
MSN Music
Why this non-profit ad?

 
login to add comments/video/corrections