Come Back Baby

Ramones

------------------------------------------------------

-------------------------------------------------------

 E
 E
 Well life's a drag without you

I found out a little bit too late, oh yes I did now
 E
 I want you and all of your time
 D
I found out a little bit too late, oh yes I did now

 EA
   Come back baby, come back
 DEA
   Come back baby, come back
Come back baby, come back
 DE
   Come back into my arms
 DEA
   Come back baby, come back
Come back baby, come back
Come back baby, come back
 DE
   Come back into my arms

Well I want you in my arms
I found out a little bit too late, oh yes I did now
Yeah, I want you and all of your time
I found out a little bit too late, oh yes I did now

Come back baby...

 ED
      I want you to kiss goodnight, you gotta come back
E D ( E D E ) x2
I want you to hold me tight, come back, yeah
 DE
      You gotta come back 

 DEADEADEA
e--------------------|-------------------|--------------------|
B--------------------|-------------------|--------------------|
G--------------------|-------------------|--------------------|
D----------------7---|---------------7---|---------------7----|
A--5-5-7-7-7-5-----7-|-5-5-7-7-7-5-----7-|-5-5-7-7-7-5-----7--|
E--------------5-----|-------------5-----|-------------5------|


 DEAC#E
e------------------|-------------|-----------------|--------------|
B------------------|-------------|-----------------|--------------|
G------------------|-------------|-----------------|--------------|
D------------------|-------------|-----------------|--------------|
A--5-5-5-5-5-5-5-5-|-7-7-7-5-5-5-|-4-4-4-4-4-4-4-4-|-7-7-7-7-7-7--|
E------------------|-------------|-----------------|--------------|


Come back baby...

 D
   Come back, baby, come back

( repeat till the end )


A C# D E
variations - click chord images
Transpose chords:
Tuning:
Cool service:
View: Size:
A  A  A
Rating:
Layout:
  • Currently 2.9/5 Stars.
  • 1
  • 2
  • 3
  • 4
  • 5
 
Accuracy:
  • Currently 2.7/5 Stars.
  • 1
  • 2
  • 3
  • 4
  • 5
 
click stars to rate
Chordie recommends:
Learn how to play guitar at JamPlay.com
Songbook:
Login to add this song to your songbook
Support the artist
Preview/buy this song
MSN Music
Why this non-profit ad?

 
login to add comments/video/corrections