Guitar Tabs, Chords and Lyrics


Out Of Dreams   Rascals



i used the chorded version to help me but their were bits missing.
this is how i play it, it sounds right





Tabbed by:arcticm1


intro
e|--00-------|
B|--00-------|
G|--00-33----|x4
D|--22-33----| play Dm on the end of the 4th time
A|--22-11----|
E|-----------|

bass riff verse

pre chorus

e|--------------0------------------|
B|--------------0------------------|
G|--77777777----0------------------|
D|--77777777----2------------------| x2 
A|--55555555----2------------------|
E|---------------------------------|

e|--00-------|             
B|--00-------|
G|--00-33----|x2   
D|--22-33----| 
A|--22-11----|
E|-----------|


chorus

e|-----------------------------|
B|-----------------------------|
G|--55555555-------------------|
D|--55555555-66666666----------|
A|--33333333-66666666----------|
E|-----------44444444----------|

back into intro riff

e|--00-------|
B|--00-------|
G|--00-33----|x4
D|--22-33----| play Dm on the end of the 4th time
A|--22-11----|
E|-----------|

verse bass

verse guitar
e|------------------------|
B|------------------------|
G|--4-3--44---------------|x4
D|--4-3--44---------------|
A|--2-1--22---------------|
E|------------------------|

e|--00-------|             
B|--00-------|
G|--00-33----|x2   
D|--22-33----| 
A|--22-11----|
E|-----------|

chrous
e|-----------------------------|
B|-----------------------------|
G|--55555555-------------------|
D|--55555555-66666666----------| x4
A|--33333333-66666666----------|
E|-----------44444444----------|

bridge sort of thingy 

e|-------------------------|
B|-------------------------|
G|--6666-------------------|
D|--6666-------------------|
A|--4444---332255----------|
E|-------------------------|

then into this

e|-----------0000---------|
B|-----------0000---------|
G|---4444----0000---------|
D|---4444----2222---------| x 8 i think best of listening to the record
A|---2222----2222---------|
E|------------------------|

break

intro faster

e|--00-------|             
B|--00-------|
G|--00-33----|x16 listen to the record
D|--22-33----| 
A|--22-11----|
E|-----------|

pre chorus

e|--------------0------------------|
B|--------------0------------------|
G|--77777777----0------------------|
D|--77777777----2------------------| x8
A|--55555555----2------------------|
E|---------------------------------|

thats it done




| /  slide up
| \  slide down
| h  hammer-on
| p  pull-off
| ~  vibrato
| +  harmonic
| x  Mute note


Important: The song above is NOT stored on the Chordie server. The original song is hosted at www.guitaretab.com. Chordie works as a search engine and provides on-the-fly formatting. Chordie does not index songs against artists'/composers' will. To remove this song please click here.

This song is displayed as text-only. Transposing and tuning is only available for chordpro-songs.

Login - add to songbook

Rating click stars to rate

Layout
Accuracy

SHARE PAGE  




You need to log in to post comments