Guitar Tabs, Chords and Lyrics


Bond Girl   Rascals



I 've been trying to learn this song for a while and i think i've got it spot on.

I think live miles kane only plays the root notes of the chords but i like playing it 
the chords.

tabbed by:arcticm1
Tuning:standard

intro
e|-------------------------8--9-6-8----8--9-6-8/11---------|
B|----------------------------------8----------------------|
G|---------------------------------------------------------|
D|---------------------------------------------------------|
A|---------------------------------------------------------|
E|--8--9--6-8--8--9--6-8-----------------------------------|

verse all palm muted
e|------------------------------------|
B|------------------------------------|
G|------------------------------------|
D|-101010101010-11-8-10-101010-101010-|    x4 play last 6 chords on the 4th
A|-101010101010-11-8-10-101010-101010-|
E|--8-8-8-8-8-8--9-6--8--8-8-8--8-8-8-|


e|-------------------------------------------|
B|-------------------------------------------|
G|------88-55-77-----------------------------|x2
D|-1010-88-55-77-101010-101010---------------|
A|-1010-66-33-55-101010-101010---------------|
E|--8-8-----------8-8-8--8-8-8---------------|


e|-------------------------------------------|
B|-------------------------------------------|
G|------88-55-77-----------------------------|x2
D|-1010-88-55-77-101010-101010---------------|
A|-1010-66-33-55-101010-101010---------------|
E|--8-8-----------8-8-8--8-8-8---------------|

verse all palm muted
e|------------------------------------|
B|------------------------------------|
G|------------------------------------|
D|-101010101010-11-8-10-101010-101010-|    x6 play last 6 chords on the 6th
A|-101010101010-11-8-10-101010-101010-|
E|--8-8-8-8-8-8--9-6--8--8-8-8--8-8-8-|


e|--------------------------------------------|
B|--------------------------------------------| x3
G|-1010101010101010-88888888-5555-8-5555-8----|
D|-1010101010101010-88888888-5555-8-5555-8----|
A|--8-8-8-8-8-8-8-8-66666666-3333-6-3333-6----|
E|--------------------------------------------|

e|--------------------------------------------|
B|--------------------------------------------|
G|-1010101010101010-88888888------------------|
D|-1010101010101010-88888888------------------|
A|--8-8-8-8-8-8-8-8-66666666------------------|
E|--------------------------------------------|
solo (sort of)

e|-888888-9-6-8-888888-9-6-8---------888888-9-6-8/12-888888-9-6-8-|
B|-888888-9-6-8-888888-9-6-8---------888888-9-6-8/12-888888-9-6-8-|
G|-------------------------10p11p10-8-----------------------------|
D|----------------------------------------------------------------|
A|----------------------------------------------------------------|
E|----------------------------------------------------------------|


palm muted
e|----------------------x---------|
B|----------------------x---------|
G|----------------------x---------|x3
D|-101010101010-11-8-10-x---------|
A|-101010101010-11-8-10-x---------|
E|--8-8-8-8-8-8--9-6--8-x---------|

verse all palm muted
e|------------------------------------|
B|------------------------------------|
G|------------------------------------|
D|-101010101010-11-8-10-101010-101010-|   last 6 chords not palm muted
A|-101010101010-11-8-10-101010-101010-|
E|--8-8-8-8-8-8--9-6--8--8-8-8--8-8-8-|

e|-------------------------------------------|
B|-------------------------------------------|
G|------88-55-77-----------------------------|x4
D|-1010-88-55-77-101010-101010---------------|
A|-1010-66-33-55-101010-101010---------------|
E|--8-8-----------8-8-8--8-8-8---------------|

e|--------------------------------------------|
B|--------------------------------------------| x4
G|-1010101010101010-88888888-5555-8-5555-8----|
D|-1010101010101010-88888888-5555-8-5555-8----|
A|--8-8-8-8-8-8-8-8-66666666-3333-6-3333-6----|
E|--------------------------------------------|

and your done ur best of listing to the song you'll undersatnd the tab better and the rhythm.

| /  slide up
| \  slide down
| h  hammer-on
| p  pull-off
| ~  vibrato
| +  harmonic
| x  Mute note


Important: The song above is NOT stored on the Chordie server. The original song is hosted at www.guitaretab.com. Chordie works as a search engine and provides on-the-fly formatting. Chordie does not index songs against artists'/composers' will. To remove this song please click here.

This song is displayed as text-only. Transposing and tuning is only available for chordpro-songs.

Login - add to songbook

Rating click stars to rate

Layout
Accuracy

SHARE PAGE  




You need to log in to post comments