eToCache5 = ""; ?> falling by Rasmus - guitar chords, guitar tabs and lyrics - chordie

falling

Rasmus

E|-----|-------------------------------------------------|

B|-----|-------------------------------------------------|
G|-6-6-|-6-6-6--7-7--9-9---------------------------------|
D|-5-5-|-6-6-6--7-7--9-9--4-4-4-4/9-9-9--7-7--6-6--4-4-4-|
A|-4-4-|-4-4-4--5-5--7-7--4-4-4-4/9-9-9--7-7--6-6--4-4-4-|x2
E|-----|------------------2-2-2-2/7-7-7--5-5--4-4--2-2-2-|
E|------------|
B|------------|
G|------------|
D|-2~--7-6-4~-|
A|-2~--7-6-4~-|
E|-0~--5-4-2~-|

 F#mED
 I don't go to school every Monday
 F#mED
 I've got my reason to sleep
 F#mEDE
 Don't you tell me how I should be 

 F#mED
E|--------| I made up my mind 'bout the music
B|--------|
G|--------|

D|-7-6-4~-|
A|-7-6-4~-|
E|-5-4-2~-|
 F#mED
E|--------| I made up my mind 'bout the style
B|--------|
G|--------|

D|-7-6-4~-|
A|-7-6-4~-|
E|-5-4-2~-|
 F#mEDE
E|--------| I know that I'm stable and able to settle down
B|--------|
G|--------|

D|-7-6-4~-|
A|-7-6-4~-|
E|-5-4-2~-|

e|--------| But I keep
B|--------|
G|--------|

D|-2~--4~-|
A|-2~--4~-|
E|-0~--2~-|

Chorus:
E|-------------------------------------------------|
B|-------------------------------------------------|
G|-6-6-6--7-7--9-9---------------------------------|
D|-6-6-6--7-7--9-9--4-4-4-4/9-9-9--7-7--6-6--4-4-4-|
A|-4-4-4--5-5--7-7--4-4-4-4/9-9-9--7-7--6-6--4-4-4-|x2
E|------------------2-2-2-2/7-7-7--5-5--4-4--2-2-2-|
E|------------|
B|------------|
G|------------|
D|-2~--7-6-4~-|
A|-2~--7-6-4~-|
E|-0~--5-4-2~-|


Verse (acoustic):
 F#mED
 This life is so full of temptation
 F#mED
 And I want to keep it that way
 F#mEDE
 I know myself I can handle the game

 F#mED
E|--------| Made up my mind 'bout the future
B|--------|
G|--------|

D|-7-6-4~-|
A|-7-6-4~-|
E|-5-4-2~-|
 F#mED
E|--------| Made up my mind 'bout the past
B|--------|
G|--------|

D|-7-6-4~-|
A|-7-6-4~-|
E|-5-4-2~-|
 F#mEDE
E|--------| I know that I'm stable and able to hold on
B|--------|
G|--------|

D|-7-6-4~-|
A|-7-6-4~-|
E|-5-4-2~-|

e|--------| Hold on
B|--------|
G|--------|

D|-2~--4~-|
A|-2~--4~-|
E|-0~--2~-|

Chorus:
E|-------------------------------------------------|
B|-------------------------------------------------|
G|-6-6-6--7-7--9-9---------------------------------|
D|-6-6-6--7-7--9-9--4-4-4-4/9-9-9--7-7--6-6--4-4-4-|
A|-4-4-4--5-5--7-7--4-4-4-4/9-9-9--7-7--6-6--4-4-4-|x2
E|------------------2-2-2-2/7-7-7--5-5--4-4--2-2-2-|


Bridge:
 E5D5
     (Falling) I need a flame I need a spark
 E5F#5
     (Falling) don't be afraid to open my heart
 E5D5
     (Falling) I need a game I need a shock
 E5F#5
     (Falling) don't be afraid my heart is unlocked

Solo:
E|-----------------------------|
B|-10-9-10--------10-9-10------|
G|---------7bh8b-----------6~\-|
D|-----------------------------|
A|-----------------------------|x2
E|-----------------------------|
E|------------|
B|------------|
G|------------|
D|-x-x-4-2-4~-|
A|-x-x-4-2-4~-|
E|-x-x-2-0-2~-|


Then:(silently)
E|-------------------------------------------------|
B|-------------------------------------------------|
G|-6-6-6--7-7--9-9---------------------------------|
D|-6-6-6--7-7--9-9--4-4-4-4/9-9-9--7-7--6-6--4-4-4-|
A|-4-4-4--5-5--7-7--4-4-4-4/9-9-9--7-7--6-6--4-4-4-|x6
E|------------------2-2-2-2/7-7-7--5-5--4-4--2-2-2-|


Prechorus:
E|------------|
B|------------|
G|------------|
D|-x-2-2-2-2~-|
A|-x-2-2-2-2~-|
E|-x-0-0-0-0~-|


Chorus:
E|-------------------------------------------------|
B|-------------------------------------------------|
G|-6-6-6--7-7--9-9---------------------------------|
D|-6-6-6--7-7--9-9--4-4-4-4/9-9-9--7-7--6-6--4-4-4-|
A|-4-4-4--5-5--7-7--4-4-4-4/9-9-9--7-7--6-6--4-4-4-|x2
E|------------------2-2-2-2/7-7-7--5-5--4-4--2-2-2-|


Bridge:
 E5D5
     (Falling) I need a flame I need a spark
 E5F#5
     (Falling) don't be afraid to open my heart
 E5D5
     (Falling) I need a game I need a shock
 E5F#5
     (Falling) don't be afraid my heart is unlocked

Solo:
E|-----------------------------|
B|-10-9-10--------10-9-10------|
G|---------7bh8b-----------6~\-|
D|-----------------------------|
A|-----------------------------|x2
E|-----------------------------|


End:
E|--------------|
B|--------------|
G|--------------|
D|-x-x-4-2-4-4~-|
A|-x-x-4-2-4-4~-|
E|-x-x-2-0-2-2~-|


PLZ REATE!


D D5 E E5 F#5 F#m
variations - click chord images
Transpose chords:
Tuning:
Cool service:
View: Size:
A  A  A
Rating:
Layout:
  • Currently 3.8/5 Stars.
  • 1
  • 2
  • 3
  • 4
  • 5
 
Accuracy:
  • Currently 2.6/5 Stars.
  • 1
  • 2
  • 3
  • 4
  • 5
 
click stars to rate
Chordie recommends:
Get acoustic guitar lessons and electric guitar lessons at JamPlay.com
Songbook:
Login to add this song to your songbook
Support the artist
Preview/buy this song
MSN Music
Why this non-profit ad?

 
login to add comments/video/corrections