Guitar Tabs, Chords and Lyrics


A Falling Through  Ray Lamontagne

----------------------------------------------------------------------------



----------------------------------------------------------------------------

    [C]    [Cmaj7]        [Am]      [A5]      [G]      [F]   
e|--0-----0-----0-----0-----3-----1-----------------------|
B|--1-----0-----1-----0-----0-----1-----------------------|
G|--0-----0-----2-----2-----0-----2-----------------------|
D|--2-----2-----2-----2-----0-----3-----------------------|
A|--3-----3-----0-----0-----2-----3-----------------------|
E|--0-----0-----0-----0-----3-----1-----------------------|



Throughout much of the song he switches from C/Cmaj7 and Am/A5 like this:

e|--0--0--0--0--0---/--0--0--0--0--0-----------------------------------|
B|--1--0--1--0--1---/--1--0--1--0--1-----------------------------------|
G|--0--0--0--0--0---/--2--2--2--2--2-----------------------------------|
D|--2--2--2--2--2---/--2--2--2--2--2-----------------------------------|
A|--3--3--3--3--3---/--0--0--0--0--0-----------------------------------|
E|--0--0--0--0--0---/--0--0--0--0--0-----------------------------------|



INTRO: What’s in parentheses is what’s actually being played, but leaving it out sounds
too. If it’s too confusing just pretend the parentheses aren’t there.


[C]  [Cmaj7]        [C]   [Cmaj7]       [C]   [Am]   [A5]     [Am]    [A5] [Am] 
Verse 1:

[C]Laid our bl[Cmaj7]essings [C]on [Cmaj7]the gr[C]ound[Am]

The[A5] sof[Am]teni[A5]ng of[Am] soun[C]d
[Cmaj7]Draws us[C] cl[Cmaj7]osed a[C]gai[Am]n     [A5]    [Am]    [A5]   [Am]
[C]Stay, [Cmaj7]stay an[C]d [Cmaj7]watch [C]the [Am]coals
[A5]till [Am]they[A5] cea[Am]se to gl[C]ow
[Cmaj7]like em[C]pt[Cmaj7]y prom[C]ise[Am]s    [A5]    [Am]    [A5]   [Am]
CHORUS:

[C]Why[G], Why did yo[F]u go, why did you g[C]o aw[G]ay?
[C]Why[G], Why did yo[F]u go, why did you g[C]o aw[G]ay?
[C]Baby?

[C]  [Cmaj7]      [Am]   [A5]                          
VERSE 2: (Remember Verse 1’s parentheses)

[C]There's nothing I can s[Am]ay
Nothing I can d[C]o
To bring you back ag[Am]ain
[C]This of life I know is t[Am]rue
It's all a falling th[C]rough
and so I reach for y[Am]ou

CHORUS:

[C]Why[G], Why did yo[F]u go, why did you g[C]o aw[G]ay?
[C]Why[G], Why did yo[F]u go, why did you g[C]o aw[G]ay?

BRIDGE:

[Am]Don't you ca[C]re
[Am]That it may seem un[C]fair?
[F]You steal things you ought to [C]borrow[G]
[Am]Don't you fi[C]nd
[Am]That it may seem unk[C]ind?
[F]I'd rather breathe than drown in [C]sorrow[G]

FINAL CHORUS:

[C]Why[G], Why did yo[F]u go, why did you g[C]o aw[G]ay?
[C]Why[G], Why did yo[F]u go, why did you g[C]o aw[G]ay?
[C]Baby?

C Cmaj7 Am A5 (Finish on C)

Important: The song above is NOT stored on the Chordie server. The original song is hosted at www.guitaretab.com. Chordie works as a search engine and provides on-the-fly formatting. Chordie does not index songs against artists'/composers' will. To remove this song please click here.

Text color:
Chord color:
Chord grids: 
Font size:    
Page size: 

A5 Am C Cmaj7 F G
variations - click chord images

Login - add to songbook

Transpose chords

Tuning

Rating click stars to rate

Layout
Accuracy

SHARE PAGE  




You need to log in to post comments