Chordie logo


Before I Fall To Pieces   Razorlight



Before I fall to pieces - Razorlight


Intro

Guitar 2

e|-------------------------------------------------|e
b|-----------15------------------------------------|b
g|-------14------14---16---14---16---14------------|g
d|----16-------------------------------------------|d
a|-------------------------------------------------|a
e|-------------------------------------------------|e


Guitar 1                 
e|0---------------|----3-----3-----2--3-2-0-0|
b|0---------------|----3-----3-----3--3-3-3-3|
g|0---------------|----0-----0-----2--2-2-2-2|
d|0---------------|----0-----2-----0--0-0-0-0|
a|0---------------|----2-----3-----0--0-0-0-0|
e|0---------------|----3-----x-----x--x-x-x-x|



Bass

G|-------------------|
D|----------5—7h9p7--| X2
A|-2/5--5-7----------|
E|-------------------|

G|------------------------------|
D|-----------5-7h9p7--7-7-9-7---| 
A|-2/5--5-7-------------------9-|
E|------------------------------|

G|--------------------------------------|
D|------------5-5-5—7h9p7-7-7-7-7h9-7---| X2
A|-5-5-5--5-7-------------------------9-|
E|--------------------------------------|


Verse


Guitar 1

e|-0-----0-----2-|
b|-0-----0-----3-|
g|-0-----0-----2-|
d|-0-----2-----0-|
a|-2-----3-----0-|
e|-3-----x-----x-| repeat until chorus



Bass


e|---------------|
b|---------------|
g|---------------|
d|-------------0-|
a|-------3-------|
e|-3-------------|  repeat until chorus

Chorus

Bass

G|--------------------------------------|
D|------------5-5-5—7h9p7-7-7-7-7h9-7---|
A|-5-5-5--5-7-------------------------9-|
E|--------------------------------------| repeat till verse


Guitar 1


Guitar 1                             
e|0---------------|----3-----3-----2--3-2-0-0|
b|0---------------|----3-----3-----3--3-3-3-3|
g|0---------------|----0-----0-----2--2-2-2-2|
d|0---------------|----0-----2-----0--0-0-0-0|
a|0---------------|----2-----3-----0--0-0-0-0|
e|0---------------|----3-----x-----x--x-x-x-x|


Verse 
Chorus
Verse 
Chorus 


Important: The song above is NOT stored on the Chordie server. The original song is hosted at www.guitaretab.com. Chordie works as a search engine and provides on-the-fly formatting. Chordie does not index songs against artists/composers will. To remove this song please click here.

This song is displayed as text-only. Transposing and tuning is only available for chordpro-songs.

Login - add to songbook

Rating click stars to rate

Layout
Accuracy

SHARE PAGE  




You need to log in to post comments