"yes"; ?> Y No Puedo Olvidarte by Rbd - guitar chords, guitar tabs and lyrics - chordie

Y No Puedo Olvidarte

Rbd

 DmBbFC
||------------------|-----------------||--------------------|-------------------|
||------6---5---6---|-----6-------6---||---------8----------|-------------------|
||--------7---7---7-|-------7-9-----7-||------10---10----10-|-----0-------------|
||----7-------------|---8-------8-----||---10---------10----|---2---2/3-2-0h2---|
||--5---------------|-----------------||-8------------------|-3-----------------|
||------------------|-6---------------||--------------------|-------------------|


 DmBbFCDmBbFsus2C
                                     En el silencio de mi habitación aun siento el murmullo de tu voz
 DmBbFsus2C
Lastimándome como un dulce adiós, dejándome vacío el corazón
 DmBbFsus2C
 Casi no duermo y he vuelto a fumar, cada recuerdo es una lágrima
 DmBbFsus2C
No se como hacer, para estar de pie, siempre me digo que es la ultima vez
 DmFsus2GBb
Y vuelvo a caer cuando pienso en ti, no soy nada sin ti

Chorus
 DmBb
Y no puedo olvidarte si te veo en todas partes
 FC
Si en el último beso me robaste el aliento
 DmBb
Y no puedo olvidarte si te llevo en la sangre
 FC
Si en el último abrazo aun me pierdo despacio
 DmBb
Y no puedo olvidarte…           
 FC
Y no puedo olvidarte…           
 DmBb
Y no puedo olvidarte…           
 FC
Y no puedo olvidarte…           

 Dm
|-----------------|-------5------|----|
|-----6---5---6---|---6----------|----|
|-------7---7---7-|-----7--------|----|
|---7-------------|--------------|----|
|-5---------------|-5------------|----|
|-----------------|--------------|----|


 DmBb
 No encuentro aun algún motivo yo
 Fsus2C
 Para entender que todo termino
 DmBb
Intento salir de la soledad
 Fsus2C
 Darle al destino una oportunidad
 DmFsus2GBb
Y vuelvo a caer cuando pienso en ti, no soy nada sin ti

Chorus

Y no puedo olvidarte…(4x)

 DmBbFCDm
||--5--5---------|-6--------|--8--8----------|--8--------|-5--5---------|
||--6----8--6----|-6--------|--8----8--------|--8--------|-6----8--6----|
||--7------------|-7--------|-10-------10----|--9--------|-7------------|
||--7------------|-8--------|-10-------------|-10--------|-7------------|
||--5------------|-8--------|--8-------------|-10--------|-5------------|
||---------------|-6--------|----------------|--8--------|--------------|


 BbFCDmBb
|-6--------|--8--8-----------|--8-------------|-5--5---------|-6--------|
|-6--------|--8----8---------|--8-8-----------|-6----8--6----|-6--------|
|-7--------|-10-------10-----|--9-------------|-7------------|-7--------|
|-8--------|-10--------------|-10-------------|-7------------|-8--------|
|-8--------|--8--------------|-10-------------|-5------------|-8--------|
|-6--------|-----------------|--8-------------|--------------|-6--------|


 F
|-------------|-----------|---------|
|-8-----------|-8---------|-8-------|
|----10-------|----10-----|---10----|
|-------------|-----------|---------|
|-------------|-----------|---------|
|-------------|-----------|---------|



Bb C Dm F Fsus2 G
variations - click chord images
Transpose chords:
Tuning:
Cool service:
View: Size:
A  A  A
Rating:
Layout:
  • Currently 3/5 Stars.
  • 1
  • 2
  • 3
  • 4
  • 5
 
Accuracy:
  • Currently 2.9/5 Stars.
  • 1
  • 2
  • 3
  • 4
  • 5
 
click stars to rate
Chordie recommends:
Check out these online guitar lessons
Songbook:
Login to add this song to your songbook
Support the artist
Preview/buy this song
MSN Music
Why this non-profit ad?

 
login to add comments/video/corrections