Chordie logo

Feeling Alright   Rebelution



-------------------------------------------------------------------------------
			     Rebelution- Feeling Alright
-------------------------------------------------------------------------------
Tabbed by: Libertyskate93
Email:libertyskate93@gmail.com
(Let Everything Ring)***

Tuning:Standard

e|-----------------------------------------2-5--3~--|
B|------------0--1-0---------5h7p5\3~------3--------|
G|-------0h2-----2-0--------------------------------|
D|--------------------0---0-----------0-------------|
A|--------------------------------------2~----------|
E|---0----------------------------------------------|

e|-------------------------------------------------|
B|------------0--1--0------------------------------|
G|------0h2------2--0----2p0--2------------0h2--0--|
D|---------------------0------4p0-------4----------|
A|----------------------------------2~-------------|
E|---0---------------------------------------------|

e|----------------------------2---2--------------------------------------------------|
B|-----------0h1--0-----------3---3--------------------------------------------------|
G|--------0--2----0-----------2---2--------------------------------------------------|
D|-------2---2---------0------0---0--------------------------------------------------|
A|------2----0-----------------------------------------------------------------------|
E|-----0-----------------------------------------------------------------------------|
                         Down  &   Up (4X)
e|---7-----5----5---------------------------------------------------------------|
B|---8-----5----7---------------------------------------------------------------|
G|---7-----5----5---------------------------------------------------------------|
D|---9-----7----7---------------------------------------------------------------|
A|---7-----7----5---------------------------------------------------------------|
E|---0-----5----x---------------------------------------------------------------|
Basic Chords (e minor, a minor, D Major) Just Strum them throughout entire song. Reggae 
relaxed strum, whatevas.

www.rebelutionmusic.com

For my Friends. Peace.
*Remember to listen to the song a bunch of times to get the timing down.
BE BATTY.

| /  slide up
| \  slide down
| h  hammer-on
| p  pull-off
| ~  vibrato
| +  harmonic
| x  Mute note


Important: The song above is NOT stored on the Chordie server. The original song is hosted at www.guitaretab.com. Chordie works as a search engine and provides on-the-fly formatting. Chordie does not index songs against artists/composers will. To remove this song please click here.

This song is displayed as text-only. Transposing and tuning is only available for chordpro-songs.

Login - add to songbook

Rating click stars to rate

Layout
Accuracy

SHARE PAGE  



You need to log in to post comments