Katy Song

Red House Painters

 CmajF
e|----------------------------------|
B|-1p0-------------0----------------|
G|---------------------2---2--------|
D|-----2-----2---2---2-------3---3--|
A|---------3---3---------------3----|
E|-------3---------------1----------|


Verse 1 Chords:
 CmajFCmaj
       some escape some door to open
 FCmaj
this path seems the blackest but I guess it's the soonest 
 FCmaj
but there in the clearing I know you'll be wearing  
 F
your young aching smile and waving your hand

Chorus Chords:
 GFG
     can't go with my heart when I can't feel what's in it I
 F
thought you'd come over but for some reason you didn't
 AmEmF
glass    on the pavement under my shoe
 FGC
without you is all my life amounts to  

Verse 2: use verse 1 Chords
a final sleep no words from my cutting
mouth to your ear or taut wicked pinches
from my fingers to your bitter face that i can't heal

Chorus Chords:
I know tomorrow you will be
somewhere in London living with someone
you've got some kind of family there to turn to
and that's more than I could ever give you

SOLO 1:
 CFCAmEmF
e|---2--2-2-5--5--5-5/7-3--12-12-8-0--0-0-1------------------|
B|------------------------------------------3--3-3-5-1-------| then,
G|-----------------------------------------------------------|
D|-----------------------------------------------------------|
A|-----------------------------------------------------------|
E|-----------------------------------------------------------|


 FCF
e|-----------0--0-0---0--0--0-0-3--3--3-3-----|
B|-1--1-1-1---------3-------------------------| then,
G|-0--0-0-0-----------------------------------|
D|--------------------------------------------|
A|--------------------------------------------|
E|--------------------------------------------|


 CF
e|---3---------1----------|
B|-----3-3--1--------0-0--| (play this line 5x)
G|---------------2-2------|


Verse 3: Use verse 1 chords
A chance for calm
a hope for freedom
outlet from my cold solitary kingdom
by the forest of our spring stay
where you walked away

Chorus Chords:
and left a bleeding part of me
empty and bothered
watching the water
quiet in the corner
numb and falling through
without you what does my life amount to

SOLO 2:
 CFCAmEmF
e|---2--2-2-5--5--5-5-6-7-3--12-12-8-0--0-0-1--------0-----------|
B|--------------------------------------------3--3-3---1---------| then,
G|---------------------------------------------------------------|
D|---------------------------------------------------------------|
A|---------------------------------------------------------------|
E|---------------------------------------------------------------|


 FCF
e|-----------0--0-0---0--0--0-0-3--3--3-3-----|
B|-1--1-1-1---------3-------------------------|
G|-0--0-0-0-----------------------------------|
D|--------------------------------------------|
A|--------------------------------------------|
E|--------------------------------------------|


Outro: (repeat 6x, and fade out on 6th time)
 AmFCG
 Ah, bah, da, da, bah, da, rah, da, da, rah, da, da, bah, bah
 AmFCG
 Ah, bah, da, da, bah, da, rah, da, da, rah, da, da, bah, bah
 F
Rah, da, bah, bum


Am C Cmaj Em F G
variations - click chord images
Transpose chords:
Tuning:
Cool service:
View: Size:
A  A  A
Rating:
Layout:
  • Currently 3.3/5 Stars.
  • 1
  • 2
  • 3
  • 4
  • 5
 
Accuracy:
  • Currently 2.4/5 Stars.
  • 1
  • 2
  • 3
  • 4
  • 5
 
click stars to rate
Chordie recommends:
Learn how to play guitar at JamPlay.com
Songbook:
Login to add this song to your songbook
Support the artist
Preview/buy this song
MSN Music
Why this non-profit ad?

 
login to add comments/video/corrections