Guitar Tabs, Chords and Lyrics


Down In Flames  Reel Big Fish

-------------------------------------------------------------------------------



-------------------------------------------------------------------------------

|---------------------------------------|
|---------------------------------------|
|--7-7-7--4-4-4--5-5-5------------------|
|--7-7-7--4-4-4--5-5-5--5-5-5-----------|
|--5-5-5--2-2-2--3-3-3--5-5-5------3h5--|
|-----------------------3-3-3--3h5------|
|----7--5h7p5------------5---------------5------|
|-------------8--7-8-7-8---7-8---7-8-7-8---7----|
|--7-----------------------------------------7--|
|-----------------------------------------------|
|-----------------------------------------------|
|-----------------------------------------------|
|------------------------------------------------------------|
|------------------------------------------------------------|
|------------4-----------------------------------------------|
|--5/7-5-4-----7h9p7---------------7-----------------7-------|
|----------5---------10--9-10-9-10---9-10--9-10-9-10---7-5---|
|------------------------------------------------------------|
|-------------|
|-------------|
|-------------|
|-------------| PLAY INTRO CHORDS TWICE
|-------------|
|--3/5-3-2p0--|
  [D]You don't know me,[G] but [B]here I am in your [A]living room.
  [D]You don't own me[G], but [B]you paid and [A]that means a lot to you.
(Distort)
  [D]You never [G]listen but I [B]know that's what you [A]think that you
        [D]do. [G]   [B]   [A]

PRE-CHORUS (Distort)
  [G]Everybody [E]wants a [D]chang[A]e but [G]this time it'll be the [B]same.

Watch us go down in flames.

CHORUS (Ska)
   [D]It's alright, [B]it's okay[C], it was [G]gonna happen [D]anyway.
   We had a chance, [B]we made our point,[C] your not gonna take that.

Away.

PLAY INTRO SOLO OVER VERSE

VERSE 2 (Ska-Same Chords)
Radio, commercials, Tv Shows, and front page ads.
Photos and interviews, well, they'll make sure it's the
latest fad.
Pay attention, cuz you know you'll have to pay either way.

PRE-CHORUS (Same Chords)
They tell you that it's the new thing, but we know that it
hasn't changed.
Watch us go down in flames.

CHORUS (Same chords and words)

BRIDGE
  |--------------2------------------|
  |--------2-3-5---5-3-2-------2-3--|
  |--4-3-4---------------4-3-4------|
  |---------------------------------|
  |---------------------------------|
  |---------------------------------|


MUTE THE NEXT PART (twice)
  |------------------------------------|
  |------------------------------------|
  |------------------------------------|
  |----------9-7-----------------------|
  |--7-7-7-7-----10/-------------7-9/--|
  |-------------------7-7-7-7-10-------|
  |-----------------------------------------|
  |-----------------------------------------|
  |-----------------------------------------|
  |-----------------------------------------|
  |----------------9-9-10-10-9-9-7-7--------|
  |--7-7-7-7-10-10-------------------10-10--|


Do
When this blows over, and the mainstream coughs
Do
up another show will you...

Let us back in your underground, well I guess that's
     "no" and it's just as [G]well 'cause.
VERSE 3 (play distorted part)
You never supported us, all you wanted was to see us fail.

PRE-CHORUS (play distorted part)
They tell me, that it's the new thing, so I better get out
of the way.
Watch us go down in flames.

CHORUS (same)

PLAY INTRO CHORDS

End on the D Octave

OUTRO Rhythm
  |------------------------------------|
  |------------------------------------|
  |------7--------4-------5------------|
  |----7---7----4---4---5--------------|
  |--5--------2-------3-------------5--|
  |-------------------------3-3-5h7----|


OUTRO Solo
  |----2-5-7-5--2------2----------2--5-7-5----|
  |--3---------------3---3-5-3--5----5-----7--|
  |----------------------------------5--------|
  |-------------------------------------------|
  |-------------------------------------------|
  |-------------------------------------------|
  |-------------------------------10/12-10--|
  |--5-7h5---5-3-3/5-3---10/12-10-----------|
  |--------7--------------------------------|
  |-----------------------------------------|
  |-----------------------------------------|
  |-----------------------------------------|


FOR THESE LAST NOTES, PLACE MORE EMPHASIS ON THE
LOWER NOTE, AND JUST KINDA BRUSH THE HIGHER ONE.
YOU WANT TO GET A TWO NOTE PITCH TO SOUND LIKE ONE.

  |--14-14-14--16----18-16-14-14--|
  |--15-15-15--17-17-19-17-15-15--|
  |---------------17--------------|
  |-------------------------------|
  |-------------------------------|
  |-------------------------------|
  |--14-14-14--16----18-16-14-14--|
  |--15-15-15--17-17-19-17-15-15--|
  |---------------17--------------|
  |-------------------------------|
  |-------------------------------|
  |-------------------------------|
  |--14-14-14------|
  |--15-15-15-17~--|
  |-----------17~--|
  |----------------|
  |----------------|
  |----------------|				


Important: The song above is NOT stored on the Chordie server. The original song is hosted at www.guitaretab.com. Chordie works as a search engine and provides on-the-fly formatting. Chordie does not index songs against artists'/composers' will. To remove this song please click here.

Text color:
Chord color:
Chord grids: 
Font size:    
Page size: 

A B C D E G
variations - click chord images

Login - add to songbook

Transpose chords

Tuning

Rating click stars to rate

Layout
Accuracy

SHARE PAGE  




You need to log in to post comments