Guitar Tabs, Chords and Lyrics


Take It Easy   Reel Big Fish



E---------------------------------------------------|
B-----------8—-11-11-11-11-11-11-10-11-10-8---------|
G------------10-----------------------------10-10---|
D-----7-10------------------------------------------|
A-8-8-----------------------------------------------|
E---------------------------------------------------|

E-------------------------------------------------|
B-------------------------------------------------|
G-10----------10----------------------------------|
D----10-7-10----10-7-----------7-8-7-10-8-7-------|
A-----------------------10-8-8-------------10-8---|
E-------------------------------------------------|

E-----------13-17-13-------------------------------|
B----10-13-----------13-13-10---13--13-11-10-------|
G-10------------------------------10--------10-10--|
D--------------------------------------------------|
A--------------------------------------------------|
E--------------------------------------------------|

E-----------------------------------------------------------------|
B-----------------------------------------------------------------|
G---------------------------------------1-3-----------------------|
D--------------10/12-10-7-10---------1-3---3-1----1-3---1-3-------|
A-10-8-8-8-8----------------------1-3----------3-1---3-1----------|
E------------------------------1-3--------------------------------|




Important: The song above is NOT stored on the Chordie server. The original song is hosted at www.guitaretab.com. Chordie works as a search engine and provides on-the-fly formatting. Chordie does not index songs against artists/composers will. To remove this song please click here.

This song is displayed as text-only. Transposing and tuning is only available for chordpro-songs.

Login - add to songbook

Rating click stars to rate

Layout
Accuracy

SHARE PAGE  




You need to log in to post comments