Guitar Tabs, Chords and Lyrics


Sr  Reel Big Fish

------------------------------------------------------------



------------------------------------------------------------

       [B]        [E/F#]                                                     
e||----7---7---7/9--9---||16x
B||----7---7---9/11-11--||
G||*-x-8---8-x-9/11-11-*||
D||*-x(9)-(9)x---------*||
A||--x(9)-(9)x----------||
E||---------------------||    

then main riff w/o slide:
       [B]        [E]    [F#]                                                
e||----7---7---7---9---||4x
B||----7---7---9---11--||
G||*-x-8-x-8-x-9-x-11-*||
D||*-x(9)x(9)x---x----*||
A||--x(9)x(9)x---x-----||
E||--------------------||        


then:
     [B]    [F#]    [E]    [F#]        [B]    [F#]    [E]                                  
e||-------------------||-----------------|
B||-----------------2x||-------------r-r-|
G||*-4-4-------------*||-4-4---------e-e-|
D||*-4-4-4-4-2-2-4-4-*||-4-4-4-4-2-2-s-s-|
A||--2-2-4-4-2-2-4-4--||-2-2-4-4-2-2-t-t-|
E||------2-2-0-0-2-2--||-----2-2-0-0-----|


then, main riff 8x

then, main riff 4x w/little muted guitar riff:

e||-------------------||
B||-----------------4x||
G||*-----------------*||
D||*-----------------*||
A||--9-9-6--66--------||
E||-------------77-7--||

(pm.............)
Thanks:)

Important: The song above is NOT stored on the Chordie server. The original song is hosted at www.guitaretab.com. Chordie works as a search engine and provides on-the-fly formatting. Chordie does not index songs against artists'/composers' will. To remove this song please click here.

Text color:
Chord color:
Chord grids: 
Font size:    
Page size: 

B E E/F# F#
variations - click chord images

Login - add to songbook

Transpose chords

Tuning

Rating click stars to rate

Layout
Accuracy

SHARE PAGE  




You need to log in to post comments