Guitar Tabs, Chords and Lyrics


Ban The Tubetop   Reel Big Fish



Artist:Reel Big Fish
Song:Ban The Tube Top
Album:Cheer Up!
Tabbed by:Duncan S/reelbigfish432

Although this is played with one guitar (Aaron), there are some parts which have been 
and need 2 guitars 2 play properly.

Legend:
\-slide down
/-slide up
b-bend
r-release bend
hb-hold bend
qb-quick bend
h-hammer on
p-pull off
x-mute string
pm-- and .-palm mute
~-vibrato
x\-pick slide

Intro:
E|-----------------------------|
B|-----------------------------|
G|-7-7----7-7------------------|
D|------------------4-----5----|x5
A|-----5------5\---------------|
E|----------------2---2-3---3/-|

E|------------------------------|
B|------------------------------|
G|-7-7----7-7-------------------|
D|------------------4-----5---5-|
A|-----5------5\----------------|
E|----------------2---2/3---3---|

Verse:
note:on the 4th repeat make the slide slower
     pm---    --------|
E|--------------------|
B|--------------------|
G|-7\-----------------|
D|-7\------4------5---|x4
A|-5\--4-4-4--5-5-5---|
E|-----2-2-2--3-3-3---|
       . .    . .

Chorus:
E|------------------------------------|
B|------------------------------------|
G|-7-7-7-7-----------4-4-4-4----------|
D|-7-7-7-7--7-7-7-7--4-4-4-4--5-5-7-7-|x2
A|-5-5-5-5--7-7-7-7--2-2-2-2--5-5-7-7-|
E|----------5-5-5-5-----------3-3-5-5-|

 pm------------------------------------|
E|-------------------------------------|
B|-------------------------------------|
G|-------------------------------------|
D|-4-4-4-4-4-4-4-4--5-5-5-5--7-7-7-7---|
A|-4-4-4-4-4-4-4-4--5-5-5-5--7-7-7-7---|
E|-2-2-2-2-2-2-2-2--3-3-3-3--5-5-5-5---|
   . . . . . . . .  . . . .  . . . .

Then play the main intro riff 4 times, another verse, chorus, then this

Bridge:
E|---------------------------------------------------|
B|---------------------------------------8-7-8-7-----|
G|-----------------------------7-7---------------7~\-|
D|-5-5--5-5-5-5--7-7--7-7-7-7--7-7--7-7--------------|
A|-5-5--5-5-5-5--7-7--7-7-7-7--5-5--7-7--------------|
E|-3-3--3-3-3-3--5-5--5-5-5-5-------5-5--------------|

E|----------------------------|
B|----------------------------|
G|----------------------------|
D|-5-5--5-5-5-5--7-7--7-7-7-7-|
A|-5-5--5-5-5-5--7-7--7-7-7-7-|
E|-3-3--3-3-3-3--5-5--5-5-5-5-|

 pm----------------------------------|
E|-----------------------------------|
B|-----------------------------------|
G|-----------------------------------|
D|-------------------------------5---|
A|-4-4-4-4-4-4-4-4-5-5-5-5-5-5-5-5---|
E|-2-2-2-2-2-2-2-2-3-3-3-3-3-3-3-3---|
   . . . . . . . . . . . . . . .

E|-------------------------------------------------|
B|-------------------------------------------------|
G|-----------------------------7-7----7-7------7---|
D|-5-5--5-5-5-5--7-7--7-7-7-7--7-7x\--7-7-/-/--7---|
A|-5-5--5-5-5-5--7-7--7-7-7-7--5-5x\--5-5-/-/--5---|
E|-3-3--3-3-3-3--5-5--5-5-5-5-------------------x\-|

E|-----------------|
B|-----------------|
G|-----------------|
D|-12\-12\-12\-14\-|
A|-----------------|
E|-----------------|

Now here's the first overdubbed part

note:its hard to get the spacings right but if you listen closely to the track you 
be able to work it out
E|---------------------------------|
B|---------------10b12-10qb12r10~\-|
G|---------------------------------|
D|---------------------------------|
A|---------------------------------|
E|---------------------------------|
 |                                 |
 |                                 |
E|---------------------------------|
B|---------------------------------|
G|---------------------------------|
D|--7--6-7--7-7--------------------|
A|--5--4-5--5-5--4-----4-5-5-4-5---|
E|---------------2-----2-3-3-2-3---|
    .  . .  . .  .     . . . . .

E|-----------------------------|
B|-----------------------------|
G|---------------9b11r-7-9-7~\-|
D|-----------------------------|
A|-----------------------------|
E|-----------------------------|
 |                             |
 |                             |
E|-----------------------------|
B|-----------------------------|
G|-----------------------------|
D|--7--6-7--7-7----------------|
A|--5--4-5--5-5--4---4-5-5-4-5-|
E|---------------2---2-3-3-2-3-|
    .  . .  . .  .   . . . . .

E|---------------15--14--12-------|
B|---------------------------15---|
G|-----------------12--12--12-----|
D|-----------------------------12-|
A|--------------------------------|
E|--------------------------------|
 |                                |
 |                                |
E|--------------------------------|
B|--------------------------------|
G|--------------------------------|
D|--7--6-7--7-7-------------------|
A|--5--4-5--5-5--4-----4-5-5-4-5--|
E|---------------2-----2-3-3-2-3--|
    .  . .  . .  .     . . . . .

E|---------------17b19-17qb19r-14h15p14----|
B|--------------------------------------15-|
G|-----------------------------------------|
D|-----------------------------------------|
A|-----------------------------------------|
E|-----------------------------------------|
 |                                         |
 |                                         |
E|-----------------------------------------|
B|-----------------------------------------|
G|-----------------------------------------|
D|--7--6-7--7-7----------------------------|
A|--5--4-5--5-5--4--4--4--4--5--5--5--5----|
E|---------------2--2--2--2--3--3--3--3----|
    .  . .  . .  .  .  .  .  .  .  .  .

Interlude:
E|-10-14-10-------------|
B|------------12-10-12\-|
G|----------------------|
D|----------------------|
A|----------------------|
E|----------------------|
 |                      |
 |                      |x3
E|----------5-7--5--7\--|
B|----------------------|
G|----7-----------------|
D|-------7--------------|
A|-5--------------------|
E|----------------------|

E|-10-14-10---5~-|
B|------------6~-|
G|------------7~-|
D|------------5~-|
A|------------5~-|
E|---------------|
 |               |
 |               |
E|------------5~-|
B|------------6~-|
G|----7-------7~-|
D|-------7----5~-|
A|-5----------5~-|
E|---------------|

Then a 2 main chorus parts, 3 chorus endings then,
Outro:
E|--------------------------|
B|--------------------------|
G|-7-7----7-7------7-7---7\-|
D|-7-7x\--7-7-/-/--7-7---7\-|
A|-5-5x\--5-5-/-/--5-5---5\-|
E|--------------------x\----|

I know some of the spacings are off but I did the best I could.


Important: The song above is NOT stored on the Chordie server. The original song is hosted at www.guitaretab.com. Chordie works as a search engine and provides on-the-fly formatting. Chordie does not index songs against artists'/composers' will. To remove this song please click here.

This song is displayed as text-only. Transposing and tuning is only available for chordpro-songs.

Login - add to songbook

Rating click stars to rate

Layout
Accuracy

SHARE PAGE  




You need to log in to post comments