Guitar Tabs, Chords and Lyrics


I Want Your Girlfriend To Be My Girlfriend Too   Reel Big Fish



-------------------------------------------------------------------------------
        I WANT YOUR GIRLFRIEND TO BE MY GIRLFRIEND TOO - Reel Big Fish
-------------------------------------------------------------------------------
Tabbed by: Nick Holden
Email: ugnick@nicksite.net

Notes: My first attempt at tabbing a solo. I think it's pretty darn close but
please comment or e-mail possible mistakes or areas in which it could be
better.

Tuning: Standard EADGBE

Chord progression for verses (ska strumming):
G (355433)
C (335553)
D (557775)

Same progression for chorus (use power chords with distortion)

Same progression for bridge (half-time ska strumming)


Solo:

e|----------5---8-8-7-7-5-5---------5----7----5------------------------------|
B|5h8-8-8-8---8-------------8-8-5-8--8p5--8p5--8p5-8-------------------------|
G|---------------------------------------------------7-----------------------|
D|-----------------------------------------------------9-7-------------------|
A|---------------------------------------------------------10~\--------------|
E|---------------------------------------------------------------------------|

e|----------------------7-8-10-8-7-5-----------------------------------------|
B|-----------------------------------8-5-8-8~\-------------------------------|
G|------------------2--------------------------------------------------------|
D|------2-------2-5---5------------------------------------------------------|
A|--2-5---5-2-3--------------------------------------------------------------|
E|3--------------------------------------------------------------------------|

e|8p7p5----------------------------------------------------------------------|
B|------8p7p5-------------------------7-10---7-------------------------------|
G|------------9/10~-7------------/7-9------9---7-----------------------------|
D|--------------------10-7---------------------------------------------------|
A|---------------------------------------------------------------------------|
E|---------------------------------------------------------------------------|

| /  slide up
| \  slide down
| h  hammer-on
| p  pull-off
| ~  vibrato
| +  harmonic
| x  Mute note


Important: The song above is NOT stored on the Chordie server. The original song is hosted at www.guitaretab.com. Chordie works as a search engine and provides on-the-fly formatting. Chordie does not index songs against artists'/composers' will. To remove this song please click here.

This song is displayed as text-only. Transposing and tuning is only available for chordpro-songs.

Login - add to songbook

Rating click stars to rate

Layout
Accuracy

SHARE PAGE  




You need to log in to post comments