Chordie logo


Skatanic   Reel Big Fish



INTRO:
-|-----|-0-----------0--|----------------------------------------------|
-|-----|---1-------1----|----------------(Ad lib rhythm)---------------|
-|-----|-----2---2------|-2----2--2------2--2----5-5-5--5--4--4--4--4--|
-|-----|-------2--------|----------------------------------------------|
-|-----|----------------|----------------------------------------------|
-|-----|----------------|----------------------------------------------|
                          p.m.........................................

INTRO FILLS:
-----------------------------------------------|
-----------------------------------------------|
-2----2--2------2--2---------------------------|
----------------------10---10---10--9---9---9--|
----------------------10---10---10--9---9---9--|
-----------------------8----8----8--7---7---7--|
p.m...................

--------------------------------------------|
--------------------------------------------|
-2----2--2------2--2------------------------|
----------------------X\--X/--X\-X/--X\--X/-|
----------------------X\--X/--X\-X/--X\--X/-|
----------------------X\--X/--X\-X/--X\--X/-|
p.m...................

CHORUS:
---------------------------|
---------------------------|
---------------------------|
-7--7--7----9--10----------|
-7--7--7----9--10--7-------|
-5--5--5----7---8----8-7-6-|
                   p.m.....

VERSE (double-time): _______________ _______
                    1, 2, 3,       4
     --5-5--5--5--5-|--5--5--5-5-5--|-8--7--|
     --5-5--5--5--5-|--5--5--5-5-5--|-8--7--|
     *-5------------|--------5-5-5-*|-9--8--|
     *--------------|--------------*|-------|
     ---------------|---------------|-------|
     ---------------|---------------|-------|

BRIDGE (half-time):
-----------------------------|----------------------------|
-----------------------------|----------------------------|
-----------------------------|----------------------------|
-2--2-2-3--3-3-5--5-5-3--3-3-|-2--2--2-2-2--2-2-2--2-2-2--|
-2--2-2-3--3-3-5--5-5-3--3-3-|-2--2--2-2-2--2-2-2--2-2-2--|
-0--0-0-1--1-1-3--3-3-1--1-1-|-0--0--0-0-0--0-0-0--0-0-0--|
                        p.m..   ....   ....

BREAKDOWN:
---------------------------------------------------------|
---------------------------------------------------------|
---------------------------------------------------------|
-2-------3-------4-------5-------6-------7-------8-------|
---3-2-3---4-3-4---5-4-5---6-5-6---7-6-7---8-7-8---9-8-9-|
---------------------------------------------------------|

---------------|------|
---------------|------|
---------------|------|
-7-7--9-10--9--|-7----|
-7-7--9-10--9--|-7----|


Important: The song above is NOT stored on the Chordie server. The original song is hosted at www.guitaretab.com. Chordie works as a search engine and provides on-the-fly formatting. Chordie does not index songs against artists/composers will. To remove this song please click here.

This song is displayed as text-only. Transposing and tuning is only available for chordpro-songs.

Login - add to songbook

Rating click stars to rate

Layout
Accuracy

SHARE PAGE  




You need to log in to post comments