Guitar Tabs, Chords and Lyrics


Bang The Mouse Explodes   Reel Big Fish



This was a bonus track available through iTunes on "Monkeys For Nothing And The Chimps 
Free." It's a great song, i recommend you go on iTunes and buy it for a dollar!


Intro/Chorus:
e|---------------|-------------|
B|---------------|-------------|
G|---------------|-------------|
D|-7--7--7-7-7-7-|-------------|  X 6
A|-5--5--5-0-5-0-|-5--5--5-5-7-|
E|---------------|-3--3--3-0-5-|

Intro2:
e|----------------|----------------|
B|----------------|----------------|
G|-7-7-xxxx-7-7-xx|xx-7-7----------|
D|-7-7-xxxx-7-7-xx|xx-7-7----------|
A|-5-5-xxxx-5-5-xx|xx-5-5----------| X4
E|----------------|--------5h7h8-7-|

Verse:
e|---------x-5-x-5|\3-3-x-3/5-x-5-x|
B|-7-7-x-7-x-5-x-5|\3-3-x-3/5-x-5-x|
G|-7-7-x-7-x-6-x-6|\4-4-x-4/6-x-6-x|
D|-7-7-x-7-x-7-x-7|\5-5-x-5/7-x-7-x|
A|----------------|---------------x| X3
E|----------------|---------------x|


Verse attachment:
e|---------x-5-x-5-/-3-----5--|
B|-7-7-x-7-x-5-x-5-/--3-----5-|
G|-7-7-x-7-x-6-x-6-/---4-----6|
D|-7-7-x-7-x-7-x-7-/5---5/7---|
A|----------------------------|
E|----------------------------|

Verse X 4

Pre-Chorus:
e|---------------------------------------------|
B|---------------------------------------------|
G|-----8----------9---------8-------9----------|
D|-------9----------10---------9----10---------|
A|----9----9----10-----10----9------10--9-7-5-0|
E|-7---------8------------7-------9------------|

Intro/Chorus X3

Chorus End:
e|--------------------------------|
B|--------------------------------|
G|--------------------------------|
D|----5-5-4-4---------4-4-2-2-----|
A|2-2---------5-5-0-0---------4-4-|
E|--------------------------------|

Intro2 x2

Verse x4

Pre-Chorus

Intro/Chorus X 3

Chorus End

Intro2 x4

Interlude:
e|-----------------|
B|-----------------|
G|-----------------|
D|-----------------|
A|-5------7--5-----|
E|-----------------|

Do A palm muted chorus 5 times, then:

e|--------------------|
B|--------------------|
G|----------7---------|
D|5--7------7---5---7-|
A|5--7------5---5---7-|
E|3--5----------3---5-|

Intro/Chorus X3

Chorus End

Intro/Chorus X3

Chorus End

Intro 2 X4



Important: The song above is NOT stored on the Chordie server. The original song is hosted at www.guitaretab.com. Chordie works as a search engine and provides on-the-fly formatting. Chordie does not index songs against artists'/composers' will. To remove this song please click here.

This song is displayed as text-only. Transposing and tuning is only available for chordpro-songs.

Login - add to songbook

Rating click stars to rate

Layout
Accuracy

SHARE PAGE  




You need to log in to post comments