"yes"; ?> Wanted by Refreshments - guitar chords, guitar tabs and lyrics - chordie

Wanted

Refreshments

E-3---3---3---3---3---3---3---3---3---3---3-|

B------0h1-----0h3-----0h1-----0h3-----0h1--|
G--0h2-----0h2-----0h2-----0h2-----0h2------|
D-------------------------------------------|
A-------------------------------------------|
E-------------------------------------------|
E-3---3---3---3---3---3-------3----------||
B------0h3-----0h1---------0h3-----------||
G--0h2-----0h2-----0h2---------2h0-2h4p2-||
D----------------------------------------||
A----------------------------------------||
E----------------------------------------||

 GCDC
E--------------------------------------------------|
B-12-12-12-12-12-13-12--------7-7-7-7-7-7-5-5------|
G-12-12-12-12-12-14-12--------7-7-7-7-7-7-5-5------|
D--------------------------5---------------------5-|
A----------------------5h7--------------------5h7--|
E--------------------------------------------------|

(play twice)

 GCDC
E-12-12-12-12-12-13-12-------------------------------||
B-12-12-12-12-12-14-12-------5-5-5-5-5-5--7-7-7-7-7-7||
G----------------------------5-5-5-5-5-5--7-7-7-7-7-7||
D--------------------------5-------------------------||
A----------------------5h7---------------------------||
E----------------------------------------------------||

(2nd time, stop here^)

Riff 2:
E----------------------------------|
B----------------------------------|
G----0---0-------0---0-------0---0-|
D-4h5-4h5-4h5-2h4-2h4-2h4-0h2-0h2--|
A----------------------------------|
E----------------------------------|
E---------------------------------------------||
B---------------------------------------------||
G-2-0-2b4r2-0---0----------0---0-------0---0--||
D-------------2---4-2-0-4h5-4h5-4h5-2h4-2h4-2-||
A---------------------------------------------||
E---------------------------------------------||


Solo Pt. 2:
play 4 times then>
E----3---3---3---3---3---3-| |----3---3---3-------||
B-----0h1-0h1-----0h3-0h3--| |-----0h1-0h1--------||
G-0h2---------0h2----------| |-0h2----------2h4p2-||
D--------------------------| |--------------------||
A--------------------------| |--------------------||
E--------------------------| |--------------------||


Opening Riff: (play twice, 2nd time w/ Riff 1)
 GCadd9D
G(w/Verse Riff) C D C
Well I'm wanted in 50 states and in Mexico
 GCDC
  An' them wanted posters stretch from Alaska down to Tierra Del Fuego
 GCD
  I do the don'ts and don't the do's
 CG
 I wrong the rights and I false the truth's
 CD
 I drink all night and I howl the blues
C D G...
'Cause I've never been wanted like I want to be wanted by you

Verse Riff

Well federales put a bullet in my sombrero
Still there ain't an hombre standing
who's got the drop on this here pistolero
I do the don'ts and don't the do's
And every time I turn around I'm on the 5 O'clock news
My blood runs red but my heart is blue
 CDG
'Cause I've never been wanted like I want to be wanted by you
 CDCG
      Like I want to be wanted by you
 CDCG
      Like I want to be wanted by you
 CDCGCD
      Like I want to be wanted by you     

Em(w/ Riff 2) C
So baby grab my hand we're gonna make our stand
 GD
On the Mexican side of the Rio Grande
 EmC
got a little money and a place to go
 GD
Well you can live high, while I lay low

Yeah let's go!

SOLO-Play Riff 1 followed by Solo Pt. 2

I'm still wanted in 50 states and in Mexico
And yeah them wanted posters stretch from Alaska down to Tierra Del Fuego
I do the don'ts and don't the do's
And every time I turn around I'm on the 10 O'clock news
My blood runs red, but my heart is blue
 CDG
'Cause I've never been wanted like I want to be wanted by you
 CDCG
      Like I want to be wanted by you
 CDCG
      Like I want to be wanted by you
C D C G C D Fill 1
Like I want to be wanted by you

Opening Riff once - "Aye Carrumba!"

Ending riff is just the solo again
Final riff:
E----------||
B------0-1-||
G-4-2------||				



C Cadd9 D Em G
variations - click chord images
Transpose chords:
Tuning:
Cool service:
View: Size:
A  A  A
Rating:
Layout:
  • Currently 2.7/5 Stars.
  • 1
  • 2
  • 3
  • 4
  • 5
 
Accuracy:
  • Currently 2.6/5 Stars.
  • 1
  • 2
  • 3
  • 4
  • 5
 
click stars to rate
Chordie recommends:
Learn to play this song & others via video guitar lessons at JamPlay.com
Songbook:
Login to add this song to your songbook
Support the artist
Preview/buy this song
MSN Music
Why this non-profit ad?

 
login to add comments/video/corrections