Guitar Tabs, Chords and Lyrics


Cada Maana  Reik

cada maña[A]na cuando despi[D]erto viene el recu[Bm]erdo de tu ultimo b[E]eso

cada maña[A]na cuando amane[D]zco busco el perfu[Bm]me que dejo tu cuer[E]po

cada que t[D]engo un sentimi[A]ento creo que tam[Bm]bién tú lo estas sint[E]iendo
cada momen[D]to que vivo a tu la[A]do es tan herm[Bm]oso no quiero olvid[E]arlo
cada mañan[A]a cada te qu[D]iero esta en mi m[Bm]ente y en mis sentimi[E]ento
cada cari[A]cia y cada be[D]so no se me olv[Bm]ida ni por un mome[E]nto
cada mañana... A D Bm E
                e ----0-------0--------2------2--------2-----2-------0------0-----|
                B ----2----2-----2-----3---3-----3-----3--3----3-----0---0-----0--|
                G ----2--2--2---2-2----2--2-2---2-2----4-4-4--4-4----1--1-1---1-1-|
                D ----2----------------0---------------4-------------2------------|
                A ----0--------------------------------2-------------2------------|
                E -------------------------------------2-------------0------------|


[A]          cada mañana que salgo a la ca[D]lle estas pres[Bm]ente en cada det[E]alle
cada mañ[A]ana cuando cam[D]ino siento tu cu[Bm]erpo cerca del mi[E]o

PRECORO:
cada que t[D]engo un sentimi[A]ento creo que tam[Bm]bien tú lo estas sint[E]iendo
cada momen[D]to que vivo a tu la[A]do es tan herm[Bm]oso no quiero olvidarl[E]o


CORO:

cada mañan[A]a cada te qu[D]iero esta en mi m[Bm]ente y en mis sentimi[E]ento
cada cari[A]cia y cada be[D]so no se me olv[Bm]ida ni por un mome[E]nto

Y  solo e[Dm]spero  ese mo[A]mento  que te vuelva a ver
por que si[Bm]ento que me enfermo  si no e[E]stoy junto a ti
el ci[D]elo me inv[Bm]ento para t[E]i
coro:

cada mañ[A]ana cada te qui[D]ero esta en mi me[Bm]nte y en mis sentimie[E]nto
cada cari[A]cia y cada be[D]so no se me olv[Bm]ida ni por un momen[E]to

cada mañana cada mañana....
                      [A]                 [D]                   [A]                                
                e ----0-------0--------2------2-----------0--------|
                B ----2----2-----2-----3---3-----3--------2--------|
                G ----2--2--2---2-2----2--2-2---2-2-------2--------|
                D ----2----------------0------------------2--------|
                A ----0-----------------------------------0--------|
                E -------------------------------------------------|				


Important: The song above is NOT stored on the Chordie server. The original song is hosted at www.guitaretab.com. Chordie works as a search engine and provides on-the-fly formatting. Chordie does not index songs against artists'/composers' will. To remove this song please click here.

Text color:
Chord color:
Chord grids: 
Font size:    
Page size: 

A Bm D Dm E
variations - click chord images

Login - add to songbook

Transpose chords

Tuning

Rating click stars to rate

Layout
Accuracy

SHARE PAGE  




You need to log in to post comments