Guitar Tabs, Chords and Lyrics


Ahora Sin Ti  Reik

e------2--------3-------5-------5-------------------------|


B------3--------3-------5-------5-------------------------|


G------4--------4-------7-------7-------------------------|

D------4--------5-------7-------7-------------------------|
A---2--2-----5--5----5--5----5--5-------------------------|
E-2--------3----3--5----5--5----5-------------------------|
e------5------------9--------5-----------------------------|
B------5------------9--------5-----------------------------|
G------5-------11--11--------6—6h7-6-4-2-------------------|
D------7----11-----11--------7-----------------------------|
A---7--7--9---------9-----7--7-----------------------------|
E-5----5----------------5----5-----------------------------|
e-----0-------|
B-------3-----|
G---2---------|
D-------------| x5
A-------------|
E-------------|
e-----0-------|
B-------3-----|
G---0---------|
D-------------| x5
A-------------|
E-------------|
e-----0-------|
B-------3-----|
G---2---------|
D-------------| x5
A-------------|
E-------------|
e--5-7-9-9h10-9-7-5----
e-5-7-9-----2-3-5-7-7s10-|
B-------3-5--------------|
[Bm]Es el sabor,
Es el sabo[G]r de tus labios,
una drog[D]a que envenena y me hac[A]e enloquecer,
Es el olo[Bm]r,
Es el olo[G]r de tu cabello,
Una arom[D5]a primavera permanec[A]e en mi piel.
Guitarra 1 coro:son los mismos acordes pero en otra raiz 5ta o 6ta dependiendo el acorde
rasguean igual y en el mismo tiemo solo q suenan mas agudos

e--7----10----10----0---|
B--7----12----10----2---|
G--7----12----11----2---| x2
D--9----12----12----2---|
A--9----10----12----0---|
E--7----------10--------|


Guitarra 1:Esto se toca en la estrofa

e-----------------------------|
B-----3-5-3---------3-5-3-----|
G---2-------2-----2-------2---|
D-0-----------0---------------| x4
A---------------4-----------4-|
E-----------------------------|


Y al final

e-------0--|
B-----3-3--|
G---2---2--|
D-0-----0--|
A----------|
E----------|


estrofa Guitarra 2: muy suave

e------2--------3-------5-------5---|
B------3--------3-------5-------5---|
G------4--------4-------7-------7---|
D------4--------5-------7-------7---|
A---2--2-----5--5----5--5----5--5---|
E-2--------3----3--5----5--5----5---|


Guitarra 1:

e-----0-------|
B-------3-----|
G---2---------|
D-------------|  x5
A-------------|
E-------------|
e-----0-------|
B-------3-----|
G---0---------|
D-------------| x5
A-------------|
E-------------|
e-----0-------|
B-------3-----|
G---2---------|
D-------------|  x5
A-------------|
E-------------|

Se repite esta ultima parte pero con finales diferentes


1er final
e--5-7-9-9h10-9-7-5----


2do final

e-5-7-9-----2-3-5-7-7s10-|
B-------3-5--------------|


Luego va el coro

final guitarra 1: es lento
e-------------------------|
B-----3-----3-----3-----3-|
G---2---0-2-----2-----2---|
D-0-----------0-----------|
A-------------------4-----|
E-------------------------|


Final guitarra 2:muy suave y sin rasguer los acordes, se toca con los dedos

e-----------------------------------|
B------3--------3-------5-------5---|
G------4--------4-------7-------7---|
D------4--------5-------7-------7---|
A---2--2-----5-------5-------5------|
E-2--------3----3--5----5--5----5---|



Acorde final:

e-5-
[B-3-]G-0-
D-0-
[E-3-]                                     

Bueno pues eso es todo espero q les sirva

Acordes

     [Bm]    [G]    [D]    [D5]    [A]                                                                
e|---2---3---2---5---5---|
B|---3---3---3---5---5---|
G|---4---4---2---7---4---|
D|---4---5---0---7---7---|
A|---2---5---0---5---7---|
E|---2---3---x---5---5---|				


Important: The song above is NOT stored on the Chordie server. The original song is hosted at www.guitaretab.com. Chordie works as a search engine and provides on-the-fly formatting. Chordie does not index songs against artists'/composers' will. To remove this song please click here.

Text color:
Chord color:
Chord grids: 
Font size:    
Page size: 

A Bm D D5 G
variations - click chord images

Login - add to songbook

Transpose chords

Tuning

Rating click stars to rate

Layout
Accuracy

SHARE PAGE  




You need to log in to post comments