Chordie logo

If There Is I Havent Found It Yet   Reindeer Section



============================================================================

Band: The Reindeer Section
Song: If There Is I Haven't Found It Yet
Album: Y'all Get Scared Now, Y'Hear!
Tabbed by: Charlie Lewis
Email: sci-fi-lullaby@hotmail.co.uk

Tuning: STANDARD

Listen to the song to get the strumming pattern!


Intro, Verse and Outro

  1 _ _ _ 2 _ _ _ 3 _ _ _ 4 _ _ _ -
e|--------0---------------0-------|
B|--------1---------------1-------|
G|----0---0---------------2-------|
D|--------2-----0-----2---2-----0-|
A|3-----------3---0-----------0---|
E|--------------------------------|

Chorus 

  1 _ _ _ 2 _ _ _ 3 _ _ _ 4 _ _ _ 1 _ _ _ 2 _ _ _ 3 _ _ _ 4 _ _ _ 
e|0---------------0-------3-------1-------------------------------|
B|1-------0-------1-------0-------1-------------------------------|
G|0-------0-------2-------0-------2-------------------------------|  X3
D|2-------2-------2-------0-------3-------------------------------|
A|3-------2-------0-------2-------3-------------------------------|
E|x-------0-------x-------3-------1-------------------------------|

  1 _ _ _ 2 _ _ _ 3 _ _ _ 4 _ _ _ 1 _ _ _ 2 _ _ _ 3 _ _ _ 4 _ _ _ 
e|0---------------3-------3-------1-------------------------------|
B|1-------0-------0-------0-------1-------------------------------|
G|0-------0-------0-------0-------2-------------------------------|  X1
D|2-------2-------0-------0-------3-------------------------------|
A|3-------2-------2-------2-------3-------------------------------|
E|x-------0-------3-------3-------1-------------------------------|

   The distorted guitar in the background is quite random and it would
   be pointless to tab so here are a few bars of the notes it is based
   around and after listening to the song, just improvise using these notes:

  1 _ 2 _ 3 _ 4 _ 1 _ 2 _ 3 _ 4 _ 1 _ 2 _ 3 _ 4 _ 1 _ 2 _ 3 _ 4 _ 
e|----0---0---0-0-0-------------------0---0-------------------0---|
B|1/3-----1-----1-1---1---1-------1h3-----1-------1---3---3---1---|
G|------------------------0---0---------------0h2-----------------|
D|----------------------------------------------------------------|
A|----------------------------------------------------------------|
E|----------------------------------------------------------------|

  If you have 3 guitarists to play this song(!) then you can strum this as 
  the Outro violin part:

  1 _ 2 _ 3 _ 4 _ 1 _ 2 _ 3 _ 4 _ 
e|0-------3-----0---0---------0---|
B|1-------1-----0---1---------0---|
G|0-------0-----0---0---------0---|
D|2-------2-----2---2---------2---|
A|3-------3-----3---3---------3---|
E|x-------x-----x---x---------x---|


   The layout of the song is:
  
   Intro - Verse - Chorus - Verse - Chorus - Outro

  Lyrics!

	Likewise, I said it first.

	Credit, where it is due.
	The true love, that's in your eyes.
	Is stronger, when they are closed.




Important: The song above is NOT stored on the Chordie server. The original song is hosted at www.guitaretab.com. Chordie works as a search engine and provides on-the-fly formatting. Chordie does not index songs against artists/composers will. To remove this song please click here.

This song is displayed as text-only. Transposing and tuning is only available for chordpro-songs.

Login - add to songbook

Rating click stars to rate

Layout
Accuracy

SHARE PAGE  

You need to log in to post comments