eToCache5 = ""; ?> Nao Pertenco Mais A Voce by Reino Fungi - guitar chords, guitar tabs and lyrics - chordie

Nao Pertenco Mais A Voce

Reino Fungi

e--7-6-5-4-4----------|

B--9-8-7-6-6----------|
G--9-8-7-6-6----------|
D--9-8-7-6-6----------|
A--7-6-5-4-4----------|
E--------------0-2-4--|

 ABC#mE7
Ooooh, Oooooh, Oooooh, Yeah!
 ABC#mE7
Ooooh, Oooooh, Oooooh, Yeah!
 ABC#mE7
Já não pertenço mais a você.
 ABC#mE7
A distância me fez esquecer, yeah!

 F#mC#mBC#mF#mE
Não venha me dizer, tudo que eu senti, aah!
 F#mC#mBC#mF#mEF#mE
Vou fazê-la entender que nunca me amou. Ouou       

PONTE (tocada 2x)
 C#mC#mG#mG#m
e-------------------------------------------------|
B-------------------------------------------------|
G-----4-6bb------4-6bb----------------------------|
D-4h6--------4h6---------------4-6bb------4-6bb---|
A--------------------------4h6--------4h6---------|
E-------------------------------------------------|


 ABC#mE7
Ooooh, Oooooh, Oooooh, Yeah!
 ABC#mE7
Não sou quem você sempre quis.
 ABC#mE7E7Eb7D7
Mas quem você esperava encontrar           

C#7 F#m |
Olhe para mim! (lalalala) |
C#7 F#m |
Não faço o seu tipo (lalalalala) | 2x
C#7 F#m F#m F E |
Sou muito incisivo |
E E7 |
Mas é assim que sou! |

Fim: E7 Eb7 D7 C#7

Band site: www.reinofungi.com.br


A B C#m D7 E E7 Eb7 F#m G#m
variations - click chord images
Transpose chords:
Tuning:
Cool service:
View: Size:
A  A  A
Rating:
Layout:
  • Currently 3.1/5 Stars.
  • 1
  • 2
  • 3
  • 4
  • 5
 
Accuracy:
  • Currently 2.2/5 Stars.
  • 1
  • 2
  • 3
  • 4
  • 5
 
click stars to rate
Chordie recommends:
Learn to play guitar with video-based, online guitar lessons at JamPlay.com
Songbook:
Login to add this song to your songbook
Support the artist
Preview/buy this song
MSN Music
Why this non-profit ad?

 
login to add comments/video/corrections