Ladybugs Fame

Relic

 AGFEBD
d--5--3--1--0--7--10--|
d--0--0--0--0--0--0---|
f#-0--0--0--0--0--0---|
f#-0--0--0--0--0--0---|
a--5--3--1--0--7--10--|
d--5--3--1--0--7--10--|


intro:
d----------|
d----------|
f#---------|
f#---------|
a--/7-9-7--|
d----------|


main riff:

d------------0--------0---------0---------0----|
d------------0--------0---------0---------0----|
f#---------0--------0---------0---------0------|
f#---------0--------0---------0---------0------|
a----------------------------------------------|
d--------9------9-8------8-12-----12-7-----7---|


chorus: (one line of lyrics) B A G A

interlude (really slow):

 AGFE-FGABE
lyrics:
Another ladybug sneaking around the house (yeah)
Through another broken crack in the wall (yeah)
Seems like I've crawled all my life (yeah)
She has grains of sand in her eyes (yeah)

chorus:
It's enough to make her cry
It's enough to make her die
Even though she's done it once before
She died here right on this floor (yeah)

verse 2:
There's a dead ladybug on the floor (yeah)
She's been here many other times before (yeah)
Killed by the music, dead from the fame (yeah)
And she'll never see the past again (yeah)

chorus:
It's enough to make her cry
It's enough to make her die
Even though she's done it once before
She died here right on this floor (yeah)

verse 3:
Shots are ringing out in the night (yeah)
But she'll put up a good fight (yeah)
Even though she knows she's lost (yeah)
Why even bother to dismiss (yeah)

chorus:
It's enough to make her cry
It's enough to make her die
Even though she's done it once before
She died here right on this floor (yeah)

play interlude 2x


A B D E F G
variations - click chord images
Transpose chords:
Tuning:
Cool service:
View: Size:
A  A  A
Rating:
Layout:
  • Currently 2.5/5 Stars.
  • 1
  • 2
  • 3
  • 4
  • 5
 
Accuracy:
  • Currently 2.8/5 Stars.
  • 1
  • 2
  • 3
  • 4
  • 5
 
click stars to rate
Chordie recommends:
Learn to play songs at Jamplay.com with video guitar lessons
Songbook:
Login to add this song to your songbook
Support the artist
Preview/buy this song
MSN Music
Why this non-profit ad?

 
login to add comments/video/corrections