"yes"; ?> Prodicus When by Relic - guitar chords, guitar tabs and lyrics - chordie

Prodicus When

Relic

e--2--3-----1--0--0------1-----0----0--0--0--0--0----3----2--3--4-|

B--3--3-----3--1--3------3-----3----2--2--0--0--0----3----3--3--5-|
G--2--0-----2--2--2------0-----0----0--2--1--0--0----5----4--4--6-|
D--0--2-----0--2--2------0-----2----2--2--2--2--0----5----4--5--6-|
A-----0--------0--0------------0----0--0--2--2--2----3----2--5--4-|
E-----------------------------------------0--0--0------------3----|
 Bbsus2FCD/F#
e----1----1--0--0-|
B----1----1--1--3-|
G----3----2--0--2-|
D----3----3--2--0-|
A----1----3--3--0-|
E---------1-----2-|


Part I(intro):

e----------------------------------|
B--12--------12-----12----------12-|
G----11-11h13--13-13--11-11h13-----|
D----------------------------------|
A----------------------------------|
E----------------------------------|


Do This 4 times

Part II:
 DB7sus4DB7sus4
e----2---2----2---2------2---2----2---2---|
B---3---3----3---3------3---3----3---3----|
G--2---2--2-0---0---0--2---2--2-0---0---0-|
D-----------------------------------------|
A-----------------------------------------|
E-----------------------------------------|


 B7sus4DB7sus4D
e-----------------------------------------|
B----3---3----3---3------3---3----3---3---|
G---0---0----2---2------0---0----2---2----|
D--2---2--2-0---0---0--2---2--2-0---0---0-|
A-----------------------------------------|
E-----------------------------------------|


Dm Dm* Dm Dm*
e----1---1----1---1------1---1----1---1---|
B---3---3----3---3------3---3----3---3----|
G--2---2--2-0---0---0--2---2--2-0---0---0-|
D-----------------------------------------|
A-----------------------------------------|
E-----------------------------------------|


 B7sus4DB7sus4D
e-----------------------------------------|
B----3---3----3---3------3---3----3---3---|
G---0---0----2---2------0---0----2---2----|
D--2---2--2-0---0---0--2---2--2-0---0---0-|
A-----------------------------------------|
E-----------------------------------------|


Do This 2 times

Part III:
 AmAsus4AmAsus4
e------------------------------------------|
B----1---1----3---3-----1---1-----3---3----|
G---2---2----2---2-----2---2-----2---2-----|
D--2---2--2-2---2--2--2---2---2-2---2---2--|
A------------------------------------------|
E------------------------------------------|

 Am7A7sus4Am7A7sus4
e------------------------------------------|
B----1---1----3---3-----1---1-----3---3----|
G---0---0----0---0-----0---0-----0---0-----|
D--2---2--2-2---2--2--2---2---2-2---2---2--|
A------------------------------------------|
E------------------------------------------|

 AAsus4AAsus4
e------------------------------------------|
B----2---2----3---3-----2---2-----3---3----|
G---2---2----2---2-----2---2-----2---2-----|
D--2---2--2-2---2--2--2---2---2-2---2---2--|
A------------------------------------------|
E------------------------------------------|

 Am7A7sus4Am7A7sus4
e------------------------------------------|
B----1---1----3---3-----1---1-----3---3----|
G---0---0----0---0-----0---0-----0---0-----|
D--2---2--2-2---2--2--2---2---2-2---2---2--|
A------------------------------------------|
E------------------------------------------|


Do This 2 times

Part IV:
strum D B7sus4 Dm Am Asus4 Dm* A7sus4 A7 E
Do This 2 times

Part V:
 EEmEEm
e--------------------------------------|
B--------------------------------------|
G----1---1----0---0----1---1----0---0--|
D---2---2----2---2----2---2----2---2---|
A--2---2--2-2---2--2-2---2--2-2---2--2-|
E--------------------------------------|

 Em7EmEm7Em
e---------------------------------------|
B---------------------------------------|
G----0---0-0---0---0-0---0--0-0--0--0-0-|
D---0---0-----2---2-----0--0----2--2----|
A--2---2-----2---2-----2--2----2--2-----|
E---------------------------------------|


Do this 2 times

Part VI:
strum Csus2 Bm G C#m Bbsus2 Am F Bm

Do this 2 times

Part VII:
 EmCGD/F#
e----------------|
B----------------|
G----------------|
D----2--2-00--00-|
A---2--3-----0---|
E--0--0--3--2----|


do this 4 times

Part VIII:
 EmCGD/F#
	e-----------------|
	B-----------------|
	G-----------------|
	D--2---2---0---0--|
	A--2---3---2---0--|
	E--0---0---3---2--|

timing: 1234123412341234

Do this 2 times and let it fade.

Copyright 1997 Relic


A A7sus4 Am Am7 Asus4 B7sus4 Bbsus2 C D D/F# E Em Em7 F G
variations - click chord images
Transpose chords:
Tuning:
Cool service:
View: Size:
A  A  A
Rating:
Layout:
  • Currently 2.8/5 Stars.
  • 1
  • 2
  • 3
  • 4
  • 5
 
Accuracy:
  • Currently 3.3/5 Stars.
  • 1
  • 2
  • 3
  • 4
  • 5
 
click stars to rate
Chordie recommends:
Learn to play guitar with video-based, online guitar lessons at JamPlay.com
Songbook:
Login to add this song to your songbook
Support the artist
Preview/buy this song
MSN Music
Why this non-profit ad?

 
login to add comments/video/corrections