eToCache5 = ""; ?> Balloon Ride by K. Relient - guitar chords, guitar tabs and lyrics - chordie

Balloon Ride

K. Relient

 GEmCD
e--3------0------0------2--------|
b--0------0------1------3--------|
g--0------0------0------2--------|
d--0------2------2------0--------|
a--2------2------3------0--------|
e--3------0------x------x--------|


PRE-CHORUS (distoriton):

 FCG
e--x------x------x--------|
b--x------x------x--------|
g--x------5------x--------|      X3
d--3------5------5--------|
a--3------3------5--------|
e--1------x------3--------|


 FCD
e--x------x------x--------|
b--x------x------x--------|
g--x------5------7--------|      X1
d--3------5------7--------|
a--3------3------5--------|
e--1------x------x--------|


CHORUS (distorion):

 GACD
e--x------x------x------x--------|
b--x------x------x------x--------|
g--x------x------5------7--------|      X4
d--5------7------5------7--------|
a--5------7------3------5--------|
e--3------5------x------x--------|


POST-CHORUS:

 FC
e--x------x--------|
b--x------x--------|
g--x------5--------|      X4
d--3------5--------|
a--3------3--------|
e--1------x--------|


VERSE 2:

G Eh C D

e--x------x------x------x--------|
b--x------x------x------x--------|
g--x------9------5------7--------|
d--5------9------5------7--------|
a--5------7------3------5--------|
e--3------x------x------x--------|


PRE-CHORUS:

CHORUS (distortion):

CHORUS (no distortion):

 GACD
e--3------0------0------2--------|
b--0------2------1------3--------|
g--0------2------0------2--------|
d--0------2------2------0--------|
a--2------0------3------0--------|
e--3------0------x------x--------|


END ON G (power chord, distortion)


A C D Em F G
variations - click chord images
Transpose chords:
Tuning:
Cool service:
View: Size:
A  A  A
Rating:
Layout:
  • Currently 3/5 Stars.
  • 1
  • 2
  • 3
  • 4
  • 5
 
Accuracy:
  • Currently 2.7/5 Stars.
  • 1
  • 2
  • 3
  • 4
  • 5
 
click stars to rate
Chordie recommends:
Get acoustic guitar lessons and electric guitar lessons at JamPlay.com
Songbook:
Login to add this song to your songbook
Support the artist
Preview/buy this song
MSN Music
Why this non-profit ad?

 
login to add comments/video/corrections