Auctioneer

R.E.M

D(1) ------0---------|2---------------|  (tune e(1) down a whole step)

B(2) ----0-----0-----|--2---3---2h3p2-|

G(3) --0---------0---|----2-----------|

D(4) 2-------------2-|


 EA
e-------------------------------------------------------------||
B-------------------------------------------------------------||
G-------------7----------------------------------------------O||(repeat)
D---------9-------9--------14--14--14--12--11----------------O||
A-----7---------------------0---0---0---0---0-----------------||
E-0-------------------0---------------------------------------||

(During the intro and breakdown, Peter sticks to this. During the verse,
however,
he adlibs a bit and instead of hitting the second "7" of the riff, he will
substitute
by hitting the high E string or some other random note.)
Pre-chorus
 FE5FE5FE5FE5
Lis-ten, lis-ten to the auc-tion-eer. A-no-ther en-gine, a-no-ther en-gine.

Chord fingerings
 FE5
e--0-------0---
B--0-------0---
G--10------9---
D--10------9---
A--8-------7---
E--8-------7---

Chorus riff
e-0----0----0---0-0-0-0-0-0--------0----0----0----0--0--0--0--0--------
B-8---10---12---5-5-5-5-5-5-etc.---8---10---12---15-15-15-15-15-etc.---

End figure (coming out of chorus riff at end of song)
e-----------------------
B-----------------------
G-------------9---------
D---------9---9---------
A-----7-------7---------
E-0-----------0---------				




























A E E5 F
variations - click chord images
Transpose chords:
Tuning:
Cool service:
View: Size:
A  A  A
Rating:
Layout:
  • Currently 3.5/5 Stars.
  • 1
  • 2
  • 3
  • 4
  • 5
 
Accuracy:
  • Currently 2.3/5 Stars.
  • 1
  • 2
  • 3
  • 4
  • 5
 
click stars to rate
Chordie recommends:
Check out these online guitar lessons
Songbook:
Login to add this song to your songbook
Support the artist
Preview/buy this song
MSN Music
Why this non-profit ad?

 
login to add comments/video/corrections