Guitar Tabs, Chords and Lyrics


Be Mine  R.E.M

E-----------------------------------------------|


B-----------------------------------------------|


G----------------------------8---9----9-8r(0)---|

D---9h11---11---11---9---11--0---0----0-0-------|
A---0-------0----0---0----0---------------------|
E-----------------------------------------------|
E-----------------------------------------------|
B-----------------------------------------------|
G-----------------------------------------------|
D-----------------------------------------------|
A---9h11---11---11---9---11------11r(0)---------|
E---0-------0----0---0----0-------0--0----------|
E-----------------------------------------------|
B-----------------------------------------------|
G----------------------------8---9----9-8r(0)---|
D---9h11---11---11---9---11--0---0----0-0-------|
A---0-------0----0---0----0---------------------|
E-----------------------------------------------|
E-----------------------------------------------|
B-----------------------------------------------|
G-----------------------------------------------|
D-----------------------------------------------|
A---9h11---11---11---9---11------11r(0)---------|
E---0-------0----0---0----0-------0--0----------|
[D]             [B]                           I wanna be your Christmas tree.
Now figure 1 and figure 2 are changing places:
E-----------------------------------------------|
B-----------------------------------------------|
G-----------------------------------------------|
D-----------------------------------------------|
A---9h11---11---11---9---11------11r(0)---------|
E---0-------0----0---0----0-------0--0----------|

I'll strip the world that you must...


E-----------------------------------------------|
B-----------------------------------------------|
G----------------------------8---9----9-8r(0)---|
D---9h11---11---11---9---11--0---0----0-0-------|
A---0-------0----0---0----0---------------------|
E-----------------------------------------------|

live in

and so on till:
...out of your feet[D]               [B]

Chorus:
               [E]          [Gm#]            
You and me.

               [Gm#]          [A]            
You and me.

               [A]          [F#]          [B]  
You and me.


in the end of the chorus there's smth like that:
E-----------------------------------------------|
B-----------------------------------------------|
G---2h4---x---4---4---2---0---------------------|
D---2h4---x---4---4---2---0---------------------|
A-----------------------------------------------|
E-----------------------------------------------|



I think you've got the the idea, just repeat this stuff three times with different lyrics:

I never thought of this as funny
It speaks another world to me
I wanna be your Easter bunny
I wanna be your Christmas tree.

I'll strip the world that you must live in
of all its godforsaken greed.
I'll ply the tar of your feathers.
I'll pluck the thorns out of your feet.
You and me.
You and me.
You and me.

And if I choose your sanctuary.
I'll want to wash you with my hair.
I'll want to drink of sacred fountains
and find elixirs hidden there.

I'll reap the lotus and the olive (?).
I'll want to hear the caged-bird sing.
I'll want the secrets of the temple.
I'll want the finger with the ring.
You and me.
You and me.
You and me.

And if you made me your religion.
I'll give all the room you need.
I'll be the drawing of your breath.
I'll be carpet you should weave.
I'll be the sky above the Ganges
I'll be the vast and stormy sea.
I'll be the lights that guide you inland.
I'll be the visions you will see.
Visions you will see.
You will see.
You will see.
You and me.

____________________________________________________________________________
Dmitry Yursky
letme@inbox.ru

Important: The song above is NOT stored on the Chordie server. The original song is hosted at www.guitaretab.com. Chordie works as a search engine and provides on-the-fly formatting. Chordie does not index songs against artists'/composers' will. To remove this song please click here.

Text color:
Chord color:
Chord grids: 
Font size:    
Page size: 

A B D E F#
variations - click chord images

Login - add to songbook

Transpose chords

Tuning

Rating click stars to rate

Layout
Accuracy

SHARE PAGE  




You need to log in to post comments