Bittersweet Me

R.E.M

 Dsus4EmDsus4Em1a2a3a4a1a2a3a4a1a2a3a4a1a2a3a4
 a
$15$
|----------------|----------------|--------------0-|----------------
|------0---------|----------------|------0-------0-|----------------
|----4-----4---2-|----------------|----4-----4---2-|----------------
|--5-----------2-|----------------|--5-----------2-|----------------
|5-------------0-|----------------|5-------------0-|----------------

VERSE:
 Dsus4EmDsus4Em1a2a3a4a1a2a3a4a1a2a3a4a1a2a3a4
 a
$27$
|--------------0-|----------0-0---|--------------0-|--0-0---0---0---
|------0-------0-|----------0-0---|------0-------0-|--0-0---0---0---
|----4-----4---2-|----------------|----4-----4---2-|----------------
|--5-----------2-|----------------|--5-----------2-|----------------
|5-------------0-|----------------|5-------------0-|----------------

play this 4 times
PRE-CHORUS:
 FF/ADmC1a2a3a4a1a2a3a4a1a2a3a4a1a2a3a4
 a
$41$
|----1-----1-----|----1-----1-----|----3-----3-----|----1-----1-----
|----------------|----------------|----------------|----------------
|----------------|----------------|0---------------|----------------
|----------------|0---------------|----------------|3---------------
|1---------------|----------------|----------------|----------------

 FF/ADmG1a2a3a4a1a2a3a4a1a2a3a4a1a2a3a4
 a
$50$
|----1-----1-----|----1-----1-----|----3-----3-----|----3-----3-----
|----------------|----------------|----------------|----------------
|----------------|----------------|0---------------|----------------
|----------------|0---------------|----------------|----------------
|1---------------|----------------|----------------|3---------------

CHORUS: (heavy distortion)
 A5G51a2a3a4a1a2a3a4a
|----------------|----------------
|----------------|----------------
|----------------|--0-------0-----   x 3, then:
|7---7---5---5-0h|2-----0h2---2p0-
|7---7---5---5---|----------------
|5---5---3---3---|----------------

 DmC1a2a3a4a1a2a3a4a
|------1-------1-|------0-------0-
|----3-------3---|----1-------1---
|--0-------0-----|--0-------0-----
|----------------|----------------
|----------------|----------------
|----------------|----------------

 BRIDGE
4-measure bass solo
Here's the lyrics:
 INTRO
 w/ VERSE
I move across, innocence lost
all flashing pulsar
I move across the earth in my new pattern shirt
I pass satellites.
"You're so bitter," your complaint
I can't give you anything
I don't know who you're livin' for
I don't who you are anymore.
 PRE-CBORUS
I'd sooner chew my leg off,
Than be trapped in this.
How easy do you think of all of this as bittersweet me
 CBORUS
I couldn't taste it
I'm tired and naked
I don't know what I'm hungry for
I don't know what I want anymore.
 w/ VERSE
I move across, candy floss
I move like a tank
I move across the room with a heart full of gloom,
stronger than you think
Oh my peer,
your veneer is wearing thin and cracking.
the surface informs that underneath,
underneath is lacking.
 PRE-CBORUS
 CBORUS
 BRIDGE
 w/ VERSE
You move across, innocence lost,
all static and desire,
you're blue in the face from navel gaze,
you set yourself on fire.
You strip down and lay yourself out,
I know you can't fake it,
But are you tire and naked?
Are you tire and naked?
 PRE-CBORUS
 CBORUS
 CBORUS
 ENDING
 :
---------
---------
-------0-
-----4---
---5-----
-5------- 			



A5 C Dm Dsus4 Em F G G5
variations - click chord images
Transpose chords:
Tuning:
Cool service:
View: Size:
A  A  A
Rating:
Layout:
  • Currently 3/5 Stars.
  • 1
  • 2
  • 3
  • 4
  • 5
 
Accuracy:
  • Currently 2.7/5 Stars.
  • 1
  • 2
  • 3
  • 4
  • 5
 
click stars to rate
Chordie recommends:
Learn how to play guitar at JamPlay.com
Songbook:
Login to add this song to your songbook
Support the artist
Preview/buy this song
MSN Music
Why this non-profit ad?

 
login to add comments/video/corrections