Guitar Tabs, Chords and Lyrics


Gardening At Night  R.E.M

e:---------------------|


B:---------------------|


G:---------------------|    repeat 3X

D:-----0-0-7-0-9-7-----|
A:---------------------|
E:---------------------|
e:----------------------------------------------------|
B:----------------------------------------------------|
G:---7-7-7-7-7-7-7-7-/--------------------------------|
D:---7-7-7-7-7-7-7-7-/--------------------------------|
A:----------------------------------------------------|
E:----------------------------------------------------|
e:---3-3---2-2---0-0---0-0---0-0----------------------|
B:---3-3---3-3---3-3---3-3---1-1----------------------|
G:---2-2---2-2---2-2---2-2---2-2----------------------|
D:---0-0---0-0---0-0---2-2---0-0----------------------|
A:----------------------------------------------------|
E:----------------------------------------------------|
[D]I see your money on the [Cadd9]floor, I felt the pocket change.
Though [G]all the feelings that broke through that [A7]door
just didn't seem to be too [D]real.
[D]The yard is nothing but a [Cadd9]fence, the sun just hurts my eyes.
Somewher[G]e it must be time for peni[A7]tence.  Gardening at night is never w[D]here.
[G]Garde[A]ning at [D]night.  [G]Garde[A]ning at [D]night.  [G]Garde[A]ning at [D]night.
[Em]The neighbors go to bed at t[F#m]en.
[Em]Call the prayer line for a cha[F#m]nge.
[Em]The charge is changing every mo[F#m]nth.
[Em]They said it couldn't be [A]arranged.   [D]
[D]We ankled up the garbage [C]sound, but they were busy in the [G]rows.
We fell up, not to see the [A7]sun, gardening at night just didn't [D]grow.
[D]I see your money on the [Cadd9]floor, I felt the pocket change.
Though [G]all the feelings that broke through that [A7]door
just didn't seem to be too [D]real.
Ga[G]rden[A]ing at nig[D]ht.  Ga[G]rdeni[A]ng at nig[D]ht.  G[G]ardeni[A]ng at nig[D]ht.
[Em]Your sister said that you're too [F#m]young.
[Em]They should know they've been there [F#m]twice.
[Em]The call was two and [F#m]fifty-one.
[Em]They said it couldn't be [A]arranged.[D]
[D]I see your money on the [Cadd9]floor, I felt the pocket change.
Though [G]all the feelings that broke through that [A7]door
just didn't seem to be too [D]real.
[D]We ankled up the garbage [Cadd9]sound, but they were busy in the rows[G].
We fell up, not to see the [A7]sun, gardening at night just didn't [D]grow.
Ga[G]rden[A]ing at nig[D]ht.  Ga[G]rdeni[A]ng at nig[D]ht.  G[G]ardeni[A]ng at nig[D]ht.
hope it helps. b.nelson7@gmail.com

Important: The song above is NOT stored on the Chordie server. The original song is hosted at www.guitaretab.com. Chordie works as a search engine and provides on-the-fly formatting. Chordie does not index songs against artists'/composers' will. To remove this song please click here.

Text color:
Chord color:
Chord grids: 
Font size:    
Page size: 

A A7 C Cadd9 D Em F#m G
variations - click chord images

Login - add to songbook

Transpose chords

Tuning

Rating click stars to rate

Layout
Accuracy

SHARE PAGE  




You need to log in to post comments