Guitar Tabs, Chords and Lyrics


Kohoutek  R.E.M



Em - - -/Em - - -/Em - - -/

[G]Who will [-]stand a[-]lone?[-/]
D     -          -   -/D   -         -    -/

. She carried ribbons, she wore them out
[D]Courage [-]bui[-/]lt a bridge, . jealous tore it down
[D]. At le[-]ast it's so[-]methin[-/Em]g .  you've [-]left be[G]hind [-/]
D  -      -   - / D  -         -   -/

. Like Kohoutek, . you were gone

[Em]We sat [-]in the [-]gard[Bm/]en, [Em]we stood on the porch
Em  -     -    Bm  / G    -      -   -/ D - - -/

I won't deny myself, . we never talked

She wore bangles, she wore bells
On her toes and she jumped like a fish
Like a flyin' friend, you were gone
Like Kohoutek, can't forget that

Fever built a bridge, reason tore it down
If I am one to follow... (solo guitar enters)

who will stand alone?
e(1)|----5---3---2---|3---2---0-------|----------------|------3---2-0---|
B(2)|--3---3---3---3-|--3---3---3-0---|3b5b3-----3-0---|--3-----------2-|
G(3)|4---------------|--------------2-|------2-------2/|4---------------|
D(4)|----------------|----------------|----------------|----------------|
A(5)|----------------|----------------|----------------|----------------|
E(6)|----------------|----------------|----------------|----------------|


(triplet)
e(1)|----------------|------3---2-0---|----------------|--------3--2--0--|
B(2)|3b5b3-----3-0---|--3-----------2-|3b5b3-----3-0---|--3--------------|
G(3)|------2-------2/|4---------------|------2-------2/|4----------------|
D(4)|----------------|----------------|----------------|-----------------|
A(5)|----------------|----------------|----------------|-----------------|
E(6)|----------------|----------------|----------------|-----------------|


Maybe you're not the problem
scissors, paper, stone
If you stand and holler, these prayers will talk

She carried ribbons, she wore them out
Michael built a bridge...Michael tore it down
At least it's something you've left behind ek, you were gone

Michael built a bridge... Michael tore it down
If I stand and holler... will I stand alone?

Important: The song above is NOT stored on the Chordie server. The original song is hosted at www.guitaretab.com. Chordie works as a search engine and provides on-the-fly formatting. Chordie does not index songs against artists'/composers' will. To remove this song please click here.

Text color:
Chord color:
Chord grids: 
Font size:    
Page size: 

D Em G
variations - click chord images

Login - add to songbook

Transpose chords

Tuning

Rating click stars to rate

Layout
Accuracy

SHARE PAGE  




You need to log in to post comments