Guitar Tabs, Chords and Lyrics


Leave  R.E.M

e--------------------|------------------------| play


B--------------------|--------------------| 3-|


G--------------------|------------------------| times

D----------4s6--3----|----------4s6-3---------| and
A----1-3-4-----------|----1-3-4---------------| then
E--------------------|------------------------| go on to
e--------------------|--------------------|
B--------------------|--------------------|
G--------------------|--------------------|
D----------4s6--3----|----------4s6-------|
A----1-3-4-----------|----1-3-4------1----|
E--------------------|--------------------|
e--------------------|--------------------|
B-----------7s9--6---|---------7s9--6h7p6-|
G---2s3-5-6----------|-2s3-5-6------------|
D--------------------|--------------------|
A--------------------|--------------------|
E--------------------|--------------------|
  [A#m]Nothing could bring me cl[F#]oser.
G# G# A#mG#A#m <-- hit G# once
Nothing could bring me near.
  Where is the road I fo[F#]llow
  To [G#]leave, leav[A#m]e?

  It's [A#m]Under, under, u[F#]nder my feet
G# G# A#mG#A#m <-- hit G# once
The sea spread out there before me.
  Where do I go when the [F#]land touches sea.
  [G#]There is my trust in [A#m]what I believe.

Chorus (both guitars strum chords)

[C#]   That's what keeps me,
[A#m]   That's what keeps me,
   [C#]That's what keeps me d[G#]own.
   To [C#]leave it, bel[A#m]ieve it[G#],
F#5F5F#5 <-- hit F5 once
Leave it all behind.

(guitar 1 strums chords,guitar 2 plays main riff)
Shifting the dream.
Nothing could bring me further from my old friend time.
Shifting the dream.
It's charging the scene.
I know where I marked the signs.

(both guitars strum chords)
I Suffer the dreams of a world gone mad.
I like it like that and I know it.
I know it well, ugly and sweet
That temper madness with an even extreme.

(both guitars strum chords)
That's what keeps me
That's what keeps me
That's what keeps me down
I say that I´m a bantam lightweight
I say that I´m a phantom airplane
That never left the ground.

That's what keeps me,
that's what keeps me,
that's what keeps me down,
to leave it, believe it,
leave it all behind.

(bass only)
Lift me, lift me,
I'll attain my dream.
I lost myself, I lost the,
Heartache calling me.

(only guitar 2 strumming chords)
I lost myself in sorrow.
I lost myself in pain.
I lost myself in clarity.
Memory, leave, leave, leave.

(both guitars strum chords)
That's what keeps me,
That's what keeps me,
That's what keeps me down,
To leave it, believe it,
Leave it all behind.

That's what keeps me,
That's what keeps me,
That's what keeps me down,
To leave it, believe it,
Leave it all behind.

(both guitars strum chords)
Lift my hands, my eyes are still
I´ll walk into the sea
Shoot myself in a different place
And leave it.

(guitar1 strums, guitar 2 picks power chords, haven´t figured out yet)
I´ve longed for this to take me,
I´ve longed for my release.
I´ve waited for the calling,
To leave, leave

(guitar 2 plays this at the end)
e---------------------------------------|
B---------------------------------------|
G---------------------------------------|
D--------4s6-3---------------4s6-3h4p3--|
A--1-3-4-------------0h1-3-4------------|
E---------------------------------------|
e---------------------------------------|
B---------------------------------------|
G---------------------------------------|
D--------4s6-3--------------------------|
A--1-3-4-------------1---2-3-1----------|
E----------------------4----------------|


Leave, leave, leave, leave
Leavin', Leavin'

End:

A#m|F#|G#|A#m|A#m|F#|G#|A#m <-- strum and let ring

Chords used

    [A#m]    [F#]    [G#]    [C#]     [F5]                                                                      
e---6---2---4---9----X---|
B---6---2---4---9----X---|
G---6---3---5---10---X---|
D---8---4---6---11---3---|
A---8---4---6---11---3---|
E---6---2---4---9----1---|


Maybe you can´t understand me, but excuse me, I´m German ...

Text from: http://www.retroweb.com/rem/lyrics/index.html

Please rate and leave comments, it´s my first tab ...

[----]                                     
Great song!! R.E.M. 4 ever!!

Tabbed by germanwing

Important: The song above is NOT stored on the Chordie server. The original song is hosted at www.guitaretab.com. Chordie works as a search engine and provides on-the-fly formatting. Chordie does not index songs against artists'/composers' will. To remove this song please click here.

Text color:
Chord color:
Chord grids: 
Font size:    
Page size: 

A#m C# F# F5 G#
variations - click chord images

Login - add to songbook

Transpose chords

Tuning

Rating click stars to rate

Layout
Accuracy

Jango Player

SHARE PAGE  




You need to log in to post comments