Guitar Tabs, Chords and Lyrics


Star 69   R.E.M



Song: Star 69 (Wait For Nothing)
Artist: Noise Therapy
Album: Tension
Tabbed by: Adam (kaffe_drick@hotmail.com)
Comment: I think this is how they play!


Intro:

e|--------------|
b|--------------|
g|--------------|
d|-----6------6-|
a|-----4------4-|
E|-6-6----4-4---|

Heavy Part:

e|------------------|
b|------------------|
g|------------------|
d|-------6--------6-|
a|-------4--------4-|
E|-0-000---0000-0---|

Verse:

Guitar 1:
e|----------|
b|----------|
g|----------|
d|-5--------|
a|-3--6--5--|
E|----4--3--|

Guitar 2: (I think it is something like this, it sounds good when you play.
Try to slide around these tones, to get the right sound!)
e|--------------|
b|--8--6--4--6--|
g|--------------|
d|--------------|
a|--------------|
E|--------------|

Refrain:

e|--------------|
b|--------------|
g|--------------|
d|-----6------6-|
a|-----4------4-|


Important: The song above is NOT stored on the Chordie server. The original song is hosted at www.guitaretab.com. Chordie works as a search engine and provides on-the-fly formatting. Chordie does not index songs against artists'/composers' will. To remove this song please click here.

This song is displayed as text-only. Transposing and tuning is only available for chordpro-songs.

Login - add to songbook

Rating click stars to rate

Layout
Accuracy

SHARE PAGE  




You need to log in to post comments