Guitar Tabs, Chords and Lyrics


Tighten Up  R.E.M



E --------------------------|--------------------------|--|

B --------------------------|--------------------------|--|
G --------------------------|--------------------------|--|
D --------------------------|-------------------4------|--|
A -------------4--6--4--6---|--4--4--4^6--4--6-----6---|--|
E --2--2--4^6---------------|--------------------------|--|
    [1]   [2]     [3]         [4]          [1]   [2]  [3] [4] 
Guitar Chords: (And Brass "mellow" Line):
  F#maj7  Bmaj7     F#maj7         A                  [F#maj7](in repeating guitar part
[]
E X-----|---6---|   -9----6------- --5---4----------- --------|
B --6---|---7---|   -----------7-- ----------7---4--- --------|
G --6---|---8---|   -------------- ------------------ -6------|
D --8---|---9---|   -------------- ------------------ --------|
A --9---|-X-----|   -------------- ------------------ --------|
E X-----|-X-----|   -------------- ------------------ --------|


|: repeat :|
                      [F#maj7]             [A]                                                    
                    E --1---       ---5---|
                    B --2---       ---5---|
                    G --3---       ---6---|
                    D --4---       ---7---|
                    A X-----       -X-----|
                    E X-----       -X-----|				


Important: The song above is NOT stored on the Chordie server. The original song is hosted at www.guitaretab.com. Chordie works as a search engine and provides on-the-fly formatting. Chordie does not index songs against artists'/composers' will. To remove this song please click here.

Text color:
Chord color:
Chord grids: 
Font size:    
Page size: 

A F#maj7
variations - click chord images

Login - add to songbook

Transpose chords

Tuning

Rating click stars to rate

Layout
Accuracy

SHARE PAGE  




You need to log in to post comments