Chordie logo

White Tornado   R.E.M












WHITE TORNADO
                                                       _____________________
                                                       |1st, 3rd, 4th times
e(1) ----------------|----------------|----------------|----------------- ||
B(2) 3-----1-------1-|3-----1-------1-|5-----3---------|5-----3----------:||
G(3) ------------2---|------------2---|----------------|------------4---- ||
     ________________                                         repeat sign^^^
     |2nd time
e(1) 3-3-2-2-0-0-----|
B(2) ------------3-3-|   and on to...
G(3) ----------------|

e(1) || /5---8-5-8-5-8-10b|(11)---(11)---8--------|
B(2) ||:------------------|----------------10-8---|
G(3) || ------------------|---------------------9-|10b-(11)-10-8-----8---|
                                             D(4) |----------------7---7-|

B(2) ---------------------- ||
G(3) 10b-(11)-10-8-----8---:||


Important: The song above is NOT stored on the Chordie server. The original song is hosted at www.guitaretab.com. Chordie works as a search engine and provides on-the-fly formatting. Chordie does not index songs against artists/composers will. To remove this song please click here.

This song is displayed as text-only. Transposing and tuning is only available for chordpro-songs.

Login - add to songbook

Rating click stars to rate

Layout
Accuracy

SHARE PAGE  

You need to log in to post comments