Oddfellows Local 1

R.E.M

------------------0--0--0-------|

------------------1--1--1-------|
------------------0--0--0-------|
------------------2--2--2-------|
------------------3--3--3-------|
--0--0--0--0--------------------|
-----------------------|
-----------5-3p0h3-----|
---5-4-------------4-0-|
-------5---------------|
-----------------------|
-----------------------|

 EmCEmAm7
 Firehouse.  Firehouse.

(use intro/verse from above)
Why do the heathens rage behind the firehouse
Where Peewee sits upon the wall to preach?
This boy and girl that gather pearls
Of wisdom falling from his mouth
Wash off the blood, wash off the rum

 EmCEmAm7
 Firehouse.  Firehouse.

Oddfellows Local 151 behind the firehouse
Where PeeWee sits upon the wall to preach.
This boy and girl that gather pearls
Of wisdom falling from his mouth
Wash off the blood, wash off the 151.

 EmCEmAm7
 Firehouse.  Firehouse.
 EmCEmAm7
 Firehouse.  Firehouse.






Am7 C Em
variations - click chord images
Transpose chords:
Tuning:
Cool service:
View: Size:
A  A  A
Rating:
Layout:
  • Currently 3/5 Stars.
  • 1
  • 2
  • 3
  • 4
  • 5
 
Accuracy:
  • Currently 2.2/5 Stars.
  • 1
  • 2
  • 3
  • 4
  • 5
 
click stars to rate
Chordie recommends:
Learn to play songs at Jamplay.com with video guitar lessons
Songbook:
Login to add this song to your songbook
Support the artist
Preview/buy this song
MSN Music
Why this non-profit ad?

 
login to add comments/video/corrections