Guitar Tabs, Chords and Lyrics


How To Jump A Ravine On Your Bicycle Comma Bobby   Remove The Veil



http://www.myspace.com/removetheveil 

How to jump a train on your bicycle comma bobby- Remove the veil

one of my favorite songs
hopefully i didnt butcher it
first time i tabbed a solo.
enjoy.

drop d tuning EBGDAD

Intro:
E|-----------------------------|       \
B|-----------------------------|	\
G|-----------------------------|	 \
D|-33-5p3-5p3-5-33-5p3-5p3-5-0~|	  \
A|-33-5p3-5p3-5-33-5p3-5p3-5-0~|	   \
D|-33-5p3-5p3-5-33-5p3-5p3-5-0~|	    \
					     | repeat 4 times
E|-------------------|			     |
B|-------------------|			    /
G|-------------------|			   /
D|-----------3p0-3p0-|			  /
A|-5p0-5p0-----------|			 /
D|---------0---------|			/


E|---------------|
B|---------------|
G|---------------|
D|-3p0-----------|
A|-----5p0-3-3H5-|
D|---------------|

E|-----------------------|
B|-----------------------|
G|-----------------------|
D|-3p0-----3p0-----------| x 7
A|-----5p0-----5p0-3-3H5-|
D|-----------------------|

E|---------------|
B|---------------|
G|---------------|
D|-3p0-----3p0-0~|
A|-----5p0-----0~|
D|-------------0~|

     THIS             IS               BAD            BLOOD
E|------------------------------------------------------------|
B|-^5^-55555-------^5^-55555--------^5^-55555-------^5^-55555-|
G|-^8^-88888-------^8^-88888--------^8^-88888-------^8^-88888-|
D|-----------000-0-----------000-0------------000-0-----------|
A|-----------000-0-----------000-0------------000-0-----------|
D|-----------000-0-----------000-0------------000-0-----------|
PM           ...             ...              ...

E|--------|
B|--------|
G|--------|
D|-00-^5^-|
A|-00-^5^-|
D|-00-^5^-|
PM ..


E|-------------------------------|
B|-----------------------------3-|
G|-----------------------------6-|
D|-5-3-0-5-3-0-5-3-0-5-3-0-3-0---| x7
A|-5-3-0-5-3-0-5-3-0-5-3-0-3-0---|
D|-5-3-0-5-3-0-5-3-0-5-3-0-3-0---|
			       *
*on 8th time replace with
palm mute 
D|-0-|
A|-0-|
D|-0-|


RIFF
E|-----------------------------|
B|-----------------------------|
G|-----------------------------|
D|-5p3p0-5p3p0-----3p0---------|
A|-------------5p0-----5p0-3p0-|
D|-----------------------------|


VERSE

E|-----------------------------|       \
B|-----------------------------|	\
G|-----------------------------|	 \
D|-33-5p3-5p3-5-33-5p3-5p3-5-0~|	  \
A|-33-5p3-5p3-5-33-5p3-5p3-5-0~|	   \
D|-33-5p3-5p3-5-33-5p3-5p3-5-0~|	    \
					     | repeat 4 times
E|-------------------|			     |
B|-------------------|			    /
G|-------------------|			   /
D|-----------3p0-3p0-|			  /
A|-5p0-5p0-----------|			 /
D|---------0---------|			/


E|-----------------|
B|-------------PH7-|
G|-----------------|
D|-5-3-0-5-3-0-----|
A|-5-3-0-5-3-0-----|
D|-5-3-0-5-3-0-----|


VERSE CONT. 

E|---------------|
B|---------------|
G|---------------|
D|-3p0-----------|
A|-----5p0-3-3H5-|
D|---------------|

E|-----------------------|
B|-----------------------|
G|-----------------------|
D|-3p0-----3p0-----------| x 7
A|-----5p0-----5p0-3-3H5-|
D|-----------------------|

E|---------------|
B|---------------|
G|---------------|
D|-3p0-----3p0-0~|
A|-----5p0-----0~|
D|-------------0~|

END

E|-------------------|
B|-------------------|
G|-------------------|
D|-3/5-5-3/5-5-5\3-0-| x4
A|-3/5-5-3/5-5-5\3-0-|
D|-3/5-5-3/5-5-5\3-0-|

SOLO

E|-------------------------------------------------------------|
B|-6-----------------------------------------------------------|
G|-9-7---------------------------------------------------------|
D|-----5/7-7-7-5\3-0-0-0-----3--^5^P0-6-6666-55555-666-6-5\3\0-|
A|-----------------------3H5---5-------------------------------|
D|-------------------------------------------------------------|

E|-------------------------------------------------|
B|-3//6///9//12-14-12------------------------------|
G|-6//9//12//15-------13-9H11-12-12-12-12-11P9-----|
D|---------------------------------------------11~-|
A|-------------------------------------------------|
D|-------------------------------------------------|

E|--------------------------------|
B|-------------------------18-----|
G|-10H12-12-10H12-12-10-12--------|
D|--------------------------------|
A|-----------------------------17~|
D|--------------------------------|




www.myspace.com/removetheveil


Important: The song above is NOT stored on the Chordie server. The original song is hosted at www.guitaretab.com. Chordie works as a search engine and provides on-the-fly formatting. Chordie does not index songs against artists/composers will. To remove this song please click here.

This song is displayed as text-only. Transposing and tuning is only available for chordpro-songs.

Login - add to songbook

Rating click stars to rate

Layout
Accuracy

SHARE PAGE  




You need to log in to post comments