Guitar Tabs, Chords and Lyrics


Take A Message  Remy Shand

-------------------------------------------------------------------------------



----------------------------------------------------------------------------

e|----5---1----1----0-------5--------6--------5-----1------3-----------------|
B|----6---1----3----2-------5--------5--------5-----3------3-----------------|
G|----7---2----3----0-------6--------6--------5-----2------3-----------------|
D|----7---3----3----2-------5--------5--------7-----3------1-----------------|
A|----6---3----1----0-------7--------x--------7-----1------1-----------------|
E|----x---1----x----x-------5--------5--------5-----1------x-----------------|
[Dm]How did she fall in [F]love?
Tired and [Bb]shaken up
Could it be [A7]hanging [Bbdim7]around's eno[Dm]ugh?
No one was [F]fooling when they told about the [Bb]sense in sensibility in [A7]moving
[Bbdim7]on.
[Dm]All that I see is that we live in life
[Am]Did you fail when you found that you paid the price?
[Dm]Hope it wasn't lost in an honest truth
so, the [Am]past doesn't break all that [Bbdim7]we'd been through
[Dm]Every little thing what you did was right
but, who k[Am]nows what you did on that day you cried [Dm]endlessly
Oh you cried [A7]endles[Bbdim7]sly
Chorus

[Bbmaj7]Take a message from my love,  [Ebmaj7]Take a message for my love, (3 times)

[Bbmaj7]Take a message from my love[A7]    [Bbdim7]
Verse 2
[Dm]What could I say to you?
Oh, when making the waves was left unconscious
I didn't mean to tell you why. oh why?
But you harbored all defenses
And you're making it hard to bring that hope back for you and I

All that I see is that we livin' life
Did you fail when you found that you paid the price?
Hope it wasn't lost in an honest truth
so the past doesn't break all that we'd been through
Every little thing what you did was right
but, who knows what you did on that day you cried endlessly
Oh you cried endlessly

Take a message from my love

Important: The song above is NOT stored on the Chordie server. The original song is hosted at www.guitaretab.com. Chordie works as a search engine and provides on-the-fly formatting. Chordie does not index songs against artists'/composers' will. To remove this song please click here.

Text color:
Chord color:
Chord grids: 
Font size:    
Page size: 

A7 Am Bb Bbdim7 Bbmaj7 Dm Ebmaj7 F
variations - click chord images

Login - add to songbook

Transpose chords

Tuning

Rating click stars to rate

Layout
Accuracy

SHARE PAGE  




You need to log in to post comments