Guitar Tabs, Chords and Lyrics


Adrenalina   Rencilla



Artist: Finley
Song: Adrenalina
Album: Adrenalina
Tabs by: kia


INTRO:

|-----| ------------|    |---------|
|-----| ------------|    |---------|
|-7-7-| ----1-----7-|    |----1--7-|
|-7-7-| -7--2--4--7-|    |-7--2--7-|
|-5-5-| -7--2--4--5-|    |-7--2--5-|
|-----| -5-----2----| x5 |-5-------|

VERSE:

[Cerco un'alternativa ke..]

|-------------------|
|-------------------|
|-------1-----------|
|-7--4--2--7--9--12-|
|-7--4--2--7--9--12-|
|-5--2-----5--7--10-|

[Nn ce la faccio +..]

|------------|
|------------|
|----1-----7-|
|-7--2--4--7-|
|-7--2--4--5-|
|-5-----2----| x 2

[Mai nessuno..][Ho bisogno di..]

|--------------|-----------|
|--------------|-----------|
|-------1------|-----------|
|-7--4--2--7---|-9--12--14-|
|-7--4--2--7---|-9--12--14-|
|-5--2-----5---|-7--10--12-|

[E vaaa..]

|---------|---------|
|---------|---------|
|-------1-|-------9-|
|-7--4--2-|-7--4--9-|
|-7--4--2-|-7--4--7-|
|-5--2----|-5--2----|

CHORUS:

[Io nn riesco a capire..]

|---------------|
|---------------|
|----7-----9--7-|
|-7--7--4--9--7-|
|-7--5--4--7--5-|
|-5-----2-------|

INTRO:

|------------|    |---------|
|------------|    |---------|
|----1-----7-|    |----1--7-|
|-7--2--4--7-|    |-7--2--7-|
|-7--2--4--5-|    |-7--2--5-|
|-5-----2----| x3 |-5-------|

VERSE:

|---------|    |---------|    |---------|    |-----------|
|-10-9-10-|    |-10-12-9-|    |-10-9-10-|    |-----------|
|---------|    |---------|    |---------|    |-----------|
|---------|    |---------|    |---------|    |-9--12--14-|
|---------|    |---------|    |---------|    |-9--12--14-|
|---------| x3 |---------| x1 |---------| x2 |-7--10--12-|

[E vaaa..]

|---------|    |------|
|---------|    |------|
|-------1-|    |-7--9-|
|-7--4--2-|    |-7--9-|
|-7--4--2-|    |-5--7-|
|-5--2----| x2 |------|

CHORUS:

[Io nn riesco a capire..]

|---------------|
|---------------|
|----7-----9--7-|
|-7--7--4--9--7-|
|-7--5--4--7--5-|
|-5-----2-------|

INTERLUDE:

|-------|    |------|     |-----|     |-------|    |------|
|--14-x-|    |-11-x-|     |-9-x-|     |--14-x-|    |-11-x-|
|--14-x-|    |-11-x-|     |-9-x-|     |--14-x-|    |-11-x-| 
|-----x-|    |----x-|     |---x-|     |-----x-|    |----x-|
|--12-x-|    |-9--x-|     |-7-x-|     |--12-x-|    |-9--x-|
|-------| x5 |------| x 2 |-----| x 2 |-------| x5 |------| x 2

PRE CHORUS:

|------------|    |------------|
|------------|    |------------|
|----1-----7-|    |----1--7--9-|
|-7--2--4--7-|    |-7--2--7--9-|
|-7--2--4--5-|    |-7--2--5--7-|
|-5-----2----| x3 |-5----------|

CHORUS:                      END:
                             
[Io nn riesco a capire..]    
                             
|---------------|            |---|
|---------------|            |---|
|----7-----9--7-|            |---|
|-7--7--4--9--7-|            |-7-|
|-7--5--4--7--5-|            |-7-|
|-5-----2-------|            |-5-|



Important: The song above is NOT stored on the Chordie server. The original song is hosted at www.guitaretab.com. Chordie works as a search engine and provides on-the-fly formatting. Chordie does not index songs against artists'/composers' will. To remove this song please click here.

This song is displayed as text-only. Transposing and tuning is only available for chordpro-songs.

Login - add to songbook

Rating click stars to rate

Layout
Accuracy

SHARE PAGE  




You need to log in to post comments