Guitar Tabs, Chords and Lyrics


I Believe Our Time Is Gonna Come  Reo Speedwagon

[1976]Written by Kevin Cronin
Tabbed by Ray Scheidler

Chords:

   [G]    [Am]    [C]    [D]    [Em]   [CaddD]        [F]    [Fsus4]                    
E--3-----------2--------------1----1----------|
B------1---1---3-------3------1----1----------|
G------2-------2--------------2----3----------|
D------2---2-------2---2------3----3----------|
A--2-------3-------2---3----------------------|
E--3------------------------------------------|


Intro: G Am Am Am Am G
[Am]   [Am]   [Am] C E[C]m [D](P[D]la[D]y [D]twice)

Y[C]ou[Em] touched me      you took me away       you

Left me confus[C]ed[Em]    when you said you couldn't stay
But now [C]I [Em]know      what you were tryin' to say
[F]I can understand that [Em]I'm not the only [Am]one
But[CaddD] I believe our t[G]ime is gonna c[F]ome
I[C] d[Em]ream of you    through every night
But yo[G]u're [Am]not risin' w[G]ith [Am]me
So I don't w[C]ann[D]a see the l[C]igh[Em]t
Even if you ca[C]n'[Em]t come over I'm hopin' that you might
'C[F]ause when you're not h[Em]ere nothing's any f[Am]un
But[CaddD] I believe our t[G]ime is gonna c[F]om[Fsus4]e     [Fsus4]      [F]
[CaddD]I believe our t[G]ime is gonna c[D]ome
CaddD G D + Riff below
I believe our time is gonna come

E------------------------------------------------|
B------------------------------------------------|
G---------------------5---7----------------------|
D-----3---5---6---7------------------------------|
A--5---------------------------------------------|
E------------------------------------------------|



[CaddD]I believe our t[G]ime is gonna
F Em Intro Riff
I believe our time is gonna come

Repeat first verse

Then chorus

Then Asus4

Then outro solo on intro riff ad nauseum

Important: The song above is NOT stored on the Chordie server. The original song is hosted at www.guitaretab.com. Chordie works as a search engine and provides on-the-fly formatting. Chordie does not index songs against artists'/composers' will. To remove this song please click here.

Text color:
Chord color:
Chord grids: 
Font size:    
Page size: 

Am C CaddD D Em F Fsus4 G
variations - click chord images

Login - add to songbook

Transpose chords

Tuning

Rating click stars to rate

Layout
Accuracy

SHARE PAGE  




You need to log in to post comments