Guitar Tabs, Chords and Lyrics


Without Water   Return



Without water by the return
Standard tuning

Intro: Reverb and occasional bending
E--9---12--7--9---5--7--9--|
B--10--13--9--10--7--9--10-|
G--11--14--9--11--7--9--11-| Repeat 4x
D--------------------------|
A--------------------------|
E--------------------------|
Guitar 1 clean
Verse
E-------------------------------------------------------|
B-------------------------------------------------------|
G-----9-9----9-9---9-9--9-9---9-9--9-9--9-9--9-9---7--9-|
D--11-----11-----9----9-----7----7----6----6-------7--9-|
A------------------------------------------------5-5--7-|
E-------------------------------------------------------|
You said I will find that place you hide but its too dark
And sure it comes all shy but im too scared too scared to speak

Chorus
E--9-----7----5--------|
B--10----9----7--------|
G--11----9----7--------|
D----------------------|Repeat 2x
A----------------------|
E----------------------|
And Building fires can start themselves sometimes
I cannot help but wonder
Sometimes water tastes like lemonade, its all the same

Guitar interlude
E--9-----7--9---5--7--9--|
B--10----9--10--7--9--10-|
G--11----9--11--7--9--11-| Repeat 2x
D------------------------|
A------------------------|
E------------------------|

Verse
E-------------------------------------------------------|
B-------------------------------------------------------|
G-----9-9----9-9---9-9--9-9---9-9--9-9--9-9--9-9---7--9-|
D--11-----11-----9----9-----7----7----6----6-------7--9-|
A------------------------------------------------5-5--7-|
E-------------------------------------------------------|
Think ive took too much im falling down, mentally
And stars will fall but cannot change their names its all the same

Chorus
E--9-----7----5--------|
B--10----9----7--------|
G--11----9----7--------|
D----------------------|Repeat 2x
A----------------------|
E----------------------|
And Building fires can start themselves sometimes
I cannot help but wonder
Sometimes water tastes like lemonade, its all the same

Guitar interlude
E--9-----7--9---5--7--9--|
B--10----9--10--7--9--10-|
G--11----9--11--7--9--11-| Repeat 2x
D------------------------|
A------------------------|
E------------------------|

E--9--
B--10-
G--11- Repeat 4 times over the heavy drum part
D-----
A-----
E-----

E--9--10--9--10--9--10--9--10--9--10--------|
B--10-10--10-10--10-10--10-10--10-10--------|
G-----------------------------------Repeat--| 4x
D-------------------------------------------|
A-------------------------------------------|
E-------------------------------------------|

Chorus
E--9-----7----5--------|
B--10----9----7--------|
G--11----9----7--------|
D----------------------|Repeat 2x
A----------------------|
E----------------------|
And Building fires can start themselves sometimes
I cannot help but wonder
Sometimes water tastes like lemonade, its all the same

Guitar interlude
E--9-----7--9---5--7--9--|
B--10----9--10--7--9--10-|
G--11----9--11--7--9--11-| Repeat 4x
D------------------------|
A------------------------|
E------------------------|

E--9--10--9--10--9----9--10--9---17-16---------|
B--10-10--10-10--10---10-10--10----------------|
G-------------------------------------Repeat 2-|0x
D----------------------------------------------|
A----------------------------------------------|
E----------------------------------------------|
              Feels so Far away....



Important: The song above is NOT stored on the Chordie server. The original song is hosted at www.guitaretab.com. Chordie works as a search engine and provides on-the-fly formatting. Chordie does not index songs against artists/composers will. To remove this song please click here.

This song is displayed as text-only. Transposing and tuning is only available for chordpro-songs.

Login - add to songbook

Rating click stars to rate

Layout
Accuracy

SHARE PAGE  




You need to log in to post comments