Chordie logo


Crimson   Reuben



Reuben - Crimson
Album - Pilot EP

Tune the E String down to Eb

Intro/Chorus

e /-------------------------------          e /-------------------------|
b /-------------------------------          b /-------------------------|
g /-----------1111----------------   X3     g /-------------------------|
d /---66666---2222----6666----6666          d /---66666----6666----2222-|
a /---44444---0000----3333----4444          a /---44444----4444----2222-|
eb/---00000-----------4444----5555          eb/---00000----5555----3333-|


Verse

e /----6~~~~~----------------------|
b /----6~~~~~----------------------|
g /----6~~~~~----------------------|
d /--------------------------------|
a /--------------------------------|
eb/----5~~~~~2222222221-1-1-2/4-4--|

Bridge

e /---------------------------------------------|
b /---------------------------------------------|
g /----6-6-6-4----6-6-6-4----6-6-6-4----6-6-6-4-|
d /---------------------------------------------|
a /----4-4-4-2----4-4-4-2----4-4-4-2----4-4-4-2-|
eb/---------------------------------------------|

Bridge 2

e /----------------------------------|
b /----------------------------------|
g /----------------------------------|
d /----------------------------------|
a /----------------------------------|
eb/----00000---11111---33333---44444-|


e /--------------------------------------|
b /--------------------------------------|
g /--------------------------------------|
d /--------------------------------------|
a /--------------------------------------|


Important: The song above is NOT stored on the Chordie server. The original song is hosted at www.guitaretab.com. Chordie works as a search engine and provides on-the-fly formatting. Chordie does not index songs against artists/composers will. To remove this song please click here.

This song is displayed as text-only. Transposing and tuning is only available for chordpro-songs.

Login - add to songbook

Rating click stars to rate

Layout
Accuracy

SHARE PAGE  




You need to log in to post comments