Guitar Tabs, Chords and Lyrics


Anthem   Revel 68








Title: Anthem
Artist: Revel 68

Intro
e|-----------------------------------------------------------------|
B|-----------------------------------------------------------------|
G|-----------------------------------------------------------------|
D|--9-------------------5-------------------7--------------------2-|
A|--9-------------------5-------------------7--------------------2-|
E|--7-------------------3-------------------5--------------------0-|

Verse
e|-------------------------------------------------------------------|
B|-------------------------------------------------------------------|
G|-------------------------------------------------------------------|
D|--9x9x9x9x9x9x9x9x7x7x7x7x7x7x7x7x5x5x5x5x5x5x5x5x2x2x2x2x2x2x2x2x-|
A|--9x9x9x9x9x9x9x9x7x7x7x7x7x7x7x7x5x5x5x5x5x5x5x5x2x2x2x2x2x2x2x2x-|
E|--7x7x7x7x7x7x7x7x5x5x5x5x5x5x5x5x3x3x3x3x3x3x3x3x0x0x0x0x0x0x0x0x-|

Break (between verse & chorus)
e|--------------------------------------------------------------------|
B|--------------------------------------------------------------------|
G|--------------------------------------------------------------------|
D|-9----9----9------5-----5-----5------7-----7-----7-----2-----2----2-|
A|-9----9----9------5-----5-----5------7-----7-----7-----2-----2----2-|
E|-7----7----7------3-----3-----3------5-----5-----5-----0-----0----0-|

verse
e|----------------------------------------------------------|
B|----------------------------------------------------------|
G|----------------------------------------------------------|
D|--99999999999999777777777777775555555555555522222222222222
A|--99999999999999777777777777775555555555555522222222222222
E|--77777777777777555555555555553333333333333300000000000000

break(between chorus & verse)
e|-------------------------------------------------------------|
B|-------------------------------------------------------------|
G|-------------------------------------------------------------|
D|--9--9--9--9-9-9--7--7--7-7-7-7--5--5--5--5-5-5----7---5---2-|
A|--9--9--9--9-9-9--7--7--7-7-7-7--5--5--5--5-5-5----7---5---2-|
E|--7--7--7--7-7-7--5--5--5-5-5-5--3--3--3--3-3-3----5---3---0-|


Lyrics:

Verse:
In came the white
A bow in hand crown on his head
Going out to conquer
Spreading the pestilence

Chorus:
And the he was just a sitting there
On a big pale hourse
His name was Death, his buddy Hell
His mission:  kill with the sword

Verse:
Red as blood horse
Nice big sword
Sent to take peace from the earth
And to kill

Chorus:
And there he was just sitting therre
On a big pale horse
His name was death  his buddy hell
His mission: kill with the sword

Verse:
Black as night
Standing there
He's got his balances
We suffer from famine

Chorus:
And there he was just sitting therre
On a big pale horse
His name was death  his buddy hell


Important: The song above is NOT stored on the Chordie server. The original song is hosted at www.guitaretab.com. Chordie works as a search engine and provides on-the-fly formatting. Chordie does not index songs against artists'/composers' will. To remove this song please click here.

This song is displayed as text-only. Transposing and tuning is only available for chordpro-songs.

Login - add to songbook

Rating click stars to rate

Layout
Accuracy

SHARE PAGE  




You need to log in to post comments