Chordie logo

Doomsower   Reverend Bizarre



-------------------------------------------------------------------------------
			     Doomsower - Reverend Bizarre
-------------------------------------------------------------------------------
Tabbed by: DehumanizeR
Email: stivharris@hotmail.com

Tuning: C#
Album: In the Rectory of the Bizarre Reverend
Other: This album, along with the Return to the Rectory EP, is great for listen
to when playing GTA: San Andreas.
Official forum: http://www.hellridemusic.com/forum/forumdisplay.php?f=17/


 Riff 1a
|-----------------------------------|
|-----------------------------------|
|-----------------------------------|
|-7/9-9-9-9-9-9-9-9-9-9-9-9-9-9-9---|
|-5/7-7-7-7-7-7-7-7-7-7-7-7-7-7-7---|
|-----------------------------------|


 Riff 1b
|-----------------------------------|
|-----------------------------------|
|-----------------------------------|
|-7/9-9-9-9-9-9-9-9-9-9-9-9-5---5---|
|-5/7-7-7-7-7-7-7-7-7-7-7-7-3---3---|
|-----------------------------------|


 Riff 2
|-------------------------------------------------|
|-------------------------------------------------|
|-------------------------------------------------|
|-7/9---------7/9---------7/9---------8~----5~----|
|-5/7---2-----5/7---2-----5/7---2-----------------|
|-------0-----------0-----------0-----------------|


 Riff 2 lead
|---------------------------------------------------|
|---------------------------------------------------|
|---------------------------------------------------|
|-4h5---5-----4h5---5-----4h5---5-----8~----5~------|
|---------------------------------------------------|
|---------------------------------------------------|


 Riff 3
|------------------------------------------------------------|
|------------------------------------------------------------|
|------------------------------------------------------------|
|-9----------------------------------------------------------|
|-7----9----8----11----5/6-6-6-6-6-6-6-6-5/6-6-6-6-6-6-6-6---|
|------7----6----9-----3/4-4-4-4-4-4-4-4-3/4-4-4-4-4-4-4-4---|

 Ending
|--------------------------------------------|
|--------------------------------------------|
|--------------------------------------------|
|-9------------------------------------------|
|-7----9----8----11---6----5----3------2-----|
|------7----6----9----4----3----1------0-----|


| /  slide
| h  hammer-on
| p  pull-off

| ~  vibrato
| b  bend


Important: The song above is NOT stored on the Chordie server. The original song is hosted at www.guitaretab.com. Chordie works as a search engine and provides on-the-fly formatting. Chordie does not index songs against artists/composers will. To remove this song please click here.

This song is displayed as text-only. Transposing and tuning is only available for chordpro-songs.

Login - add to songbook

Rating click stars to rate

Layout
Accuracy

SHARE PAGE  



You need to log in to post comments