Guitar Tabs, Chords and Lyrics


One Time For Me   Reverend Horton Heat













To: guitar@olga.net


----------------
One Time For Me
----------------

by the Reverend Horton Heat
tabbed by weevil (sub@servtech.com)
uploaded by Rob Hart rhart@webbernet.net
main riff
e|-------------------------------------------------------1----|
B|-------------------------------------------------------1----|
G|--------------------------repeat several times then---------|
D|--------------------------play this (Fm barred i think)3----|
A|---------1--3-3-3--2---1--with a wammy bar dive--------3----|
E|-1-1--4------------------------------------------------1----|

chorus type thing
e|----------------------------------------------------------|
B|----------------------------------------------------------|
G|----------------------------------------------------------|
D|-3--4-5---6--6-6-6-6-6-6----------------------------------|
A|-3--4-5---6--6-6-6-6-6-6--(keep strumming then return to--|
E|-1--2-3---4--4-4-4-4-4-4--------(opening riff)------------|

ending fast part
e|-----------------------------------------1--------------|
B|-----------------------------------------1--------------|
G|------------5-4-3------------5--4-3---------------------|
D|-3--3-3-3---5-4-3--3-3-3-3---5--4-3------3--------------|
A|-3--3-3-3---3-2-1--3-3-3-3---3--2-1------3--------------|


Important: The song above is NOT stored on the Chordie server. The original song is hosted at www.guitaretab.com. Chordie works as a search engine and provides on-the-fly formatting. Chordie does not index songs against artists/composers will. To remove this song please click here.

This song is displayed as text-only. Transposing and tuning is only available for chordpro-songs.

Login - add to songbook

Rating click stars to rate

Layout
Accuracy

SHARE PAGE  




You need to log in to post comments