Chordie logo


The Accuser   Revolution Mother



Tuning: Drop 1 Step

(00:25)
|--------|-----------|-----------|-----------|-----------|-----------|
|--------|-----------|-----------|-----------|-----------|-----------|
|--------|-----------|-----------|-----------|-----------|-----------|
|------1-|---------1-|--------1--|---------1-|--------1--|---------1-|
|---1-2--|------1-2--|-----1-2---|------1-2--|-----1-2---|------1-2--|
|-0------|-00-0------|-0-0-------|-00-0------|-0-0-------|-00-0------|

|-----------|-------------|
|-----------|-------------|
|-----------|-------------|
|--------1--|---------1---|
|-----1-2---|------1-2----|
|-0-0-------|-00-0------0-|

(00:44)
|-------------------|
|-------------------|
|-------------------|
|---------------3~--|X4
|---------------1~--|
|-00000000000000----|
  ..............

(01:03)
|-------------------|
|-------------------|
|-------------------|
|-------------3-2~--|X4
|-------------1-0~--|
|-000000000000------|
  ............
(01:22)
|--------|-----------|-----------|-----------|-----------|-----------|
|--------|-----------|-----------|-----------|-----------|-----------|
|--------|-----------|-----------|-----------|-----------|-----------|
|------1-|---------1-|--------1--|---------1-|--------1--|---------1-|
|---1-2--|------1-2--|-----1-2---|------1-2--|-----1-2---|------1-2--|
|-0------|-00-0------|-0-0-------|-00-0------|-0-0-------|-00-0------|

|-----------|-------------|
|-----------|-------------|
|-----------|-------------|
|--------1--|---------1---|
|-----1-2---|------1-2----|
|-0-0-------|-00-0------0-|

(01:40)
|-------------------|
|-------------------|
|-------------------|
|---------------3~--|X4
|---------------1~--|
|-00000000000000----|
  ..............

(02:00)
|-------------------|
|-------------------|
|-------------------|
|-------------3-2~--|X4
|-------------1-0~--|
|-000000000000------|
  ............

(02:18)
|--------|-----------|-----------|-----------|-----------|-----------|
|--------|-----------|-----------|-----------|-----------|-----------|
|--------|-----------|-----------|-----------|-----------|-----------|
|------1-|---------1-|--------1--|---------1-|--------1--|---------1-|
|---1-2--|------1-2--|-----1-2---|------1-2--|-----1-2---|------1-2--|
|-0------|-00-0------|-0-0-------|-00-0------|-0-0-------|-00-0------|

|-----------|-------------|
|-----------|-------------|
|-----------|-------------|
|--------1--|---------1---|
|-----1-2---|------1-2----|
|-0-0-------|-00-0------0-|

(02:37)
|-----------------------------|
|-----------------------------|
|-----------------------------|
|-3~---2~---3~---2~---3-2-----|
|-1~---0~---1~---0~---1-0-2~--|
|-------------------------0~--|

(02:50)
|---------|
|---------|
|---------|
|-3-2-----|X3
|-1-0-2~--|
|-----0~--|

(03:04)
|--------------------|
|--------------------|
|--------------------|
|-3-2~---------------|X4(On The 4th time play)|-3-2~-|
|-1-0~---------------|                        |-1-0~-|
|------000000000000--|

(03:24)
|--------|-----------|-----------|-----------|-----------|-----------|
|--------|-----------|-----------|-----------|-----------|-----------|
|--------|-----------|-----------|-----------|-----------|-----------|
|------1-|---------1-|--------1--|---------1-|--------1--|---------1-|
|---1-2--|------1-2--|-----1-2---|------1-2--|-----1-2---|------1-2--|
|-0------|-00-0------|-0-0-------|-00-0------|-0-0-------|-00-0------|

|-----------|-------------|
|-----------|-------------|
|-----------|-------------|
|--------1--|---------1---|
|-----1-2---|------1-2----|
|-0-0-------|-00-0------0-|

(03:43)
|-----------------------------|
|-----------------------------|
|-----------------------------|
|-3~---2~---3~---2~---3-2-----|
|-1~---0~---1~---0~---1-0-----|
|-----------------------------|

(03:52)
|-----------------------------|
|-----------------------------|
|-----------------------------|
|----------------1~-----------|(Keep Playing This Rift
|----------------3~-----------| Until The End Of The Song)
|-00000000000000--------------|





Important: The song above is NOT stored on the Chordie server. The original song is hosted at www.guitaretab.com. Chordie works as a search engine and provides on-the-fly formatting. Chordie does not index songs against artists/composers will. To remove this song please click here.

This song is displayed as text-only. Transposing and tuning is only available for chordpro-songs.

Login - add to songbook

Rating click stars to rate

Layout
Accuracy

SHARE PAGE  




You need to log in to post comments