The Accuser

Revolution Mother


Tuning: Drop 1 Step
(00:25) |--------|-----------|-----------|-----------|-----------|-----------| |--------|-----------|-----------|-----------|-----------|-----------| |--------|-----------|-----------|-----------|-----------|-----------| |------1-|---------1-|--------1--|---------1-|--------1--|---------1-| |---1-2--|------1-2--|-----1-2---|------1-2--|-----1-2---|------1-2--| |-0------|-00-0------|-0-0-------|-00-0------|-0-0-------|-00-0------|
|-----------|-------------| |-----------|-------------| |-----------|-------------| |--------1--|---------1---| |-----1-2---|------1-2----| |-0-0-------|-00-0------0-|
(00:44) |-------------------| |-------------------| |-------------------| |---------------3~--|X4 |---------------1~--| |-00000000000000----| ..............
(01:03) |-------------------| |-------------------| |-------------------| |-------------3-2~--|X4 |-------------1-0~--| |-000000000000------| ............ (01:22) |--------|-----------|-----------|-----------|-----------|-----------| |--------|-----------|-----------|-----------|-----------|-----------| |--------|-----------|-----------|-----------|-----------|-----------| |------1-|---------1-|--------1--|---------1-|--------1--|---------1-| |---1-2--|------1-2--|-----1-2---|------1-2--|-----1-2---|------1-2--| |-0------|-00-0------|-0-0-------|-00-0------|-0-0-------|-00-0------|
|-----------|-------------| |-----------|-------------| |-----------|-------------| |--------1--|---------1---| |-----1-2---|------1-2----| |-0-0-------|-00-0------0-|
(01:40) |-------------------| |-------------------| |-------------------| |---------------3~--|X4 |---------------1~--| |-00000000000000----| ..............
(02:00) |-------------------| |-------------------| |-------------------| |-------------3-2~--|X4 |-------------1-0~--| |-000000000000------| ............
(02:18) |--------|-----------|-----------|-----------|-----------|-----------|
|--------|-----------|-----------|-----------|-----------|-----------| |--------|-----------|-----------|-----------|-----------|-----------| |------1-|---------1-|--------1--|---------1-|--------1--|---------1-| |---1-2--|------1-2--|-----1-2---|------1-2--|-----1-2---|------1-2--| |-0------|-00-0------|-0-0-------|-00-0------|-0-0-------|-00-0------|
|-----------|-------------| |-----------|-------------| |-----------|-------------| |--------1--|---------1---| |-----1-2---|------1-2----| |-0-0-------|-00-0------0-|
(02:37) |-----------------------------| |-----------------------------| |-----------------------------| |-3~---2~---3~---2~---3-2-----| |-1~---0~---1~---0~---1-0-2~--| |-------------------------0~--|
(02:50) |---------| |---------| |---------| |-3-2-----|X3 |-1-0-2~--| |-----0~--|
(03:04) |--------------------| |--------------------| |--------------------| |-3-2~---------------|X4(On The 4th time play)|-3-2~-| |-1-0~---------------| |-1-0~-| |------000000000000--|
(03:24) |--------|-----------|-----------|-----------|-----------|-----------| |--------|-----------|-----------|-----------|-----------|-----------| |--------|-----------|-----------|-----------|-----------|-----------| |------1-|---------1-|--------1--|---------1-|--------1--|---------1-| |---1-2--|------1-2--|-----1-2---|------1-2--|-----1-2---|------1-2--| |-0------|-00-0------|-0-0-------|-00-0------|-0-0-------|-00-0------|
|-----------|-------------| |-----------|-------------| |-----------|-------------| |--------1--|---------1---| |-----1-2---|------1-2----| |-0-0-------|-00-0------0-|
(03:43) |-----------------------------| |-----------------------------| |-----------------------------| |-3~---2~---3~---2~---3-2-----| |-1~---0~---1~---0~---1-0-----| |-----------------------------|
(03:52) |-----------------------------| |-----------------------------| |-----------------------------| |----------------1~-----------|(Keep Playing This Rift |----------------3~-----------| Until The End Of The Song) |-00000000000000--------------|
























variations - click chord images
Transpose chords:
Tuning:
Cool service:
View: Size:
A  A  A
Rating:
Layout:
  • Currently 0/5 Stars.
  • 1
  • 2
  • 3
  • 4
  • 5
 
Accuracy:
  • Currently 3/5 Stars.
  • 1
  • 2
  • 3
  • 4
  • 5
 
click stars to rate
Chordie recommends:
Get acoustic guitar lessons and electric guitar lessons at JamPlay.com
Songbook:
Login to add this song to your songbook
Support the artist
Preview/buy this song
MSN Music
Why this non-profit ad?

 
login to add comments/video/corrections