Guitar Tabs, Chords and Lyrics


Simply Jessie  Rex Smith

|----------------------|----------------------|


|----3----3----3----3--|----0----0----0----0--|


|----4----4----4----4--|----0----0----0----0--|

|----5----5----5----5--|----2----2----2----2--|
|----------------------|--3----3----3----3----|
|--3----3----3----3----|----------------------|
          [GM7]                       [CM7]    
Fill-in in 3rd time Intro:

|--------------------------------------|
|--------------------------------------|
|--11-12-11--------11-12-11-10~~~~~~~--|
|-----------12~~~----------------------|
|--------------------------------------|
|--------------------------------------|


Verse:

And I [GM7]don't know how I [CM7]    knew it,

But I [GM7]knew it some[CM7]how,
You're the [Am]answer [D]  to the [GM7]question,[CM7]
No one's [Am]  answered till [D]now....
Pre Chorus One:


CM7 (w/ Fill-in see below) Bm
And I don't know what you see,

[Am]What you see in [GM7]me,

But g[CM7]irl it's nothing [Bm]to
[Am]What I see in [D]you....
Pre Chorus Fill-in One:

|----------------------------------------------------------------------------------|
|--/15--13----------/15--13--12----12-13-15--/15--13----------/15---17p15-14-13~~--|
|-----------14--12--------------14--------------------14--12-----------------------|
|----------------------------------------------------------------------------------|
|----------------------------------------------------------------------------------|
|----------------------------------------------------------------------------------|



Chorus One:

Stars that [GM7]glisten, lips for [CM7]   kissing,

Honey, [GM7]listen it's [Cm7]true,
No one [Am]ever   [D]  loved you [GM7]better,[CM7]
I love you [Am]honey.... [D]
Interlude: (2x)

|--10-------10-------12----------/12------------|
|-----12-------12-------12----12-----12---------|
|--------11-------11-------12-----------12~~~~--|
|-----------------------------------------------|
|-----------------------------------------------|
|-----------------------------------------------|


[GM7]                       [Cm7]             

Ad Lib:

|-----------10/12~~-12\10--8-10--------8p7-8--7-------------------|
|-7-8-8/10-----------------------8~~~~----------------8-8/10~~~~--|
|-----------------------------------------------9~~~~-------------|
|-----------------------------------------------------------------|
|-----------------------------------------------------------------|
|-----------------------------------------------------------------|


      [Am]           [D]            [GM7]       [CM7] [Am] [D] 

Pre Chorus Two:

CM7 (w/ Fill-in Two see below) Bm
And I've known a girl or two,

But [Am]none of them was [GM7]you,

And [CM7]they could never [Bm]be,
[Am]What you are to [D]me.... [D#]
Pre Chorus Fill-in Two:

|----------------------------------------------------------------------------------------------|
|--/15--13----------/15--13--12----12-13-15--/15--13----------/15---17p15-14-13~~~-17~~~-18~~~~|
|-----------14--12--------------14--------------------14--12-----------------------------------|
|----------------------------------------------------------------------------------------------|
|----------------------------------------------------------------------------------------------|
|----------------------------------------------------------------------------------------------|



Chorus Two:

Stars that [G#M7]glisten, lips for [C#M7]   kissing,

Honey, [G#M7]listen it's [C#M7]true,
No one [A#m]ever    [D#]  loved you [G#M7]better, [C#M7]
I love you [A#m]honey [D#]I love you
Outro: (5x)

|----------------------|----------------------|
|----4----4----4----4--|----------------------|
|----5----5----5----5--|----5----5----5----5--|
|----6----6----6----6--|----6----6----6----6--|
|----------------------|--4----4----4----4----|
|--4----4----4----4----|----------------------|


          [GM7]                       [CM7]    
I love you....

Important: The song above is NOT stored on the Chordie server. The original song is hosted at www.guitaretab.com. Chordie works as a search engine and provides on-the-fly formatting. Chordie does not index songs against artists'/composers' will. To remove this song please click here.

Text color:
Chord color:
Chord grids: 
Font size:    
Page size: 

A#m Am Bm C#m7 Cm7 Cm7 D D# G#m7 Gm7
variations - click chord images

Login - add to songbook

Transpose chords

Tuning

Rating click stars to rate

Layout
Accuracy

SHARE PAGE  




You need to log in to post comments