Dime Que No

Ricardo Arjona

-0-------3-3-------------------0-------1---------------|

---1---1-----3-3h-5p-3-1---------1---------------------|
-----0-------------------2---2-----2-------------------|
---------------------------2---------3-----------------|
-3---------------------0-------------------------------|
-----------3---------------------1---------------------|
---------3-5p-3-------------0--------------------------|
-1--------------3---1-----3----------------------------|
---0---0----------4---2--------------------------------|
-----2------------------3------------------------------|
-3-----------------------------------------------------|
-----------3--------1-----3----------------------------|
---------3---3---------------------------3---3---------|
-1---1---3---3---1---1---1---1---1---1---3---3---------|
-0---0-----------2---2---2---2---0---0-----------------|
-------------------------------------------------------|
---3---3-----------0---0-----------3---3---------------|
-----------3---3-----------1---1-----------3---3-------|
---------3---3---------------------------3---3---------|
-1---1---3---3---1---1---1---1---1---1---3---3---------|
-0---0-----------2---2---2---2---0---0-----------------|
-------------------------------------------------------|
---3---3-----------0---0-----------3---3---------------|
-----------3---3-----------1---1-----------3---3-------|
---------3---3-----------------------------------------|
-1---1---3---3---1---1---0---0---1---1---1---1---------|
-0---0-----------2---2---0---0---2---2---0---0---------|
-------------------------------------------------------|
---3---3-----------0---0-------------------3---3-------|
-----------3---3-----------0---0---1---1---------------|
-3---3---------------2---------------------------------|
-3---3---1---1---0---3---1---1---0---0-----------------|
---------2---2---0-------2---2---0---0-----------------|
-----------------------0-------------------------------|
-------------------0-------0---0-----------------------|
---3---3---1---1-------------------0---0---------------|
-----------------3---3---------------------------------|
-1---1---1---1---3---3---1---0---1---2-----------------|
-2---2---0---0-----------2---0---2---2-----------------|
-------------------------------------------------------|
-----------3---3-------------------0---0---------------|
---1---1-----------3---3---1---0-----------------------|
-2---3---3-----------------0-------3-------------------|
-3---3---3---1---1-------1-------3---------------------|
-------------0---0-----0-------0-----------------------|
---0---------------------------------------------------|
---------------3---3-3---------------------------------|
-------3---3-----------------3-------------------------|

 CG
 Dime que no
 DEmAm
 y me tendras pensando todo el dia en ti,
 FCG
 planeando la estrategia para un si.
 CG
 Dime que no
 DEmAm
 y lanzame un si camuflajeado,
 FC
 clavame una duda
 GC
 y me quedare a tu lado.

 CGAm
 Si me dices que si se fugara lo incierto,
 FCG
 y esa cosquilla en la panza cuando estas por venir.
 CGAm
 Si me dices que no seguire conquistando,
 FCG
 descubriendote cosas que ni tu te conoces.

Coro.

-------------------------------------------------------

Solo
-------------------------------------------------------


 GDEm
 Siempre lo facil me duro tan poco,
 CGD
 y no lo niego me diverti.
 GDEm
 Pero la soledad me ha vuelto loco,
 CGAmFG
 porque el amor nunca ha pasado por aqui. 

Coro.


Am C D Em F G
variations - click chord images
Transpose chords:
Tuning:
Cool service:
View: Size:
A  A  A
Rating:
Layout:
  • Currently 3.4/5 Stars.
  • 1
  • 2
  • 3
  • 4
  • 5
 
Accuracy:
  • Currently 3.4/5 Stars.
  • 1
  • 2
  • 3
  • 4
  • 5
 
click stars to rate
Chordie recommends:
Learn how to play guitar at JamPlay.com
Songbook:
Login to add this song to your songbook
Support the artist
Preview/buy this song
MSN Music
Why this non-profit ad?

 
login to add comments/video/corrections