"yes"; ?> A Cara O Cruz by Ricardo Arjona - guitar chords, guitar tabs and lyrics - chordie

A Cara O Cruz

Ricardo Arjona

1. -----0---0h1------------------|

2. -----1---1---1p0-------0------|
3. -----2-2---------2---2---2----|
4. ---2---------------2-------2--|
5. -0----------------------------|
6. ------------------------------|
1. ----------------------------------5--|
2. -----12h14-9-7-12h14-9-7-12h14-9--0--|
3. -5-7------------------------------0--|
4. -------------------------------------|
5. -------------------------------------|
6. -------------------------------------|
1. -5-9-7-7--|
2. ----------|
3. ----------|
4. ----------|
5. ----------|
6. ----------|
1. ----------------|
2. -------1--------|
3. -----2---2---2--|
4. ---2-------2----|
5. -0--------------|
6. ----------------|
1. --------------|
2. --------------|
3. –5h7-7-5-3-2--|
4. --------------|
5. --------------|
6. --------------|
1. ------------|
2. ---1-0---5--|
3. -2-----2----|
4. ------------|
5. ------------|
6. ------------|
1. -------2h3-2-0--|
2. -0-3-5----------|
3. ----------------|
4. ----------------|
5. ----------------|
6. ----------------|
1. -----------|
2. -----------|
3. -5-3-5--5--|
4. -----------|
5. -----------|
6. -----------|
1. -----0---------0--|
2. –3/5---3-5---5----|
3. -----------5------|
4. ------------------|
5. ------------------|
6. ------------------|
1. --------------|
2. -1-0h1p0------|
3. ---------2-4--|
4. --------------|
5. --------------|
6. --------------|

 FG
Jugando siempre, apostando siempre,
 CAm
 a cara o cruz,
 FGCAm
 ante la encruzijada revisas las cosas que pudieron pasar,
 FG
y que se suspendieron por verlas girando en el viento,
 CAm
 a cara o cruz,
 FGCAm
te jugaste los sueños, los besos, el llanto y la tortura mortal,
 FG
de ignorar el futuro y escoger al amor de tu vida,
 CAm
 a cara o cruz,
 FGAm
mientras que en la ventana, se escurre el tiempo.

Intermedio: X2

*Guitarra 1:
1. -----0---0h1------------------|
2. -----1---1---1p0-------0------|
3. -----2-2---------2---2---2----|
4. ---2---------------2-------2--|
5. -0----------------------------|
6. ------------------------------|


*Guitarra 2:
1. ----------------------------------5--|
2. -----12h14-9-7-12h14-9-7-12h14-9--0--|
3. -5-7------------------------------0--|
4. -------------------------------------|
5. -------------------------------------|
6. -------------------------------------|


Arpejeo: Am G F

Mientras la moneda da vueltas al viento,
un beso te perfuma la existencia,
mujer de corazon partido en dos,
dime a cual mitad yo pertenezco,
lo que para ti es tremenda encrucijada,
para mi es amar la incertidumbre,
lo que para ti es borron y cuenta nueva,
para mi es principio o final.

 FG
 Jugando siempre, apostando siempre,
 CAm
 a cara o cruz,
 FGCAm
 ante la encruzijada revisas las cosas que pudieron pasar,
 FG
y que se suspendieron por verlas girando en el viento,
 CAm
 a cara o cruz,
 FGCAm
te jugaste los sueños, los besos, el llanto y la tortura mortal,
 FG
de ignorar el futuro y escoger al amor de tu vida,
 CAm
 a cara o cruz,
 FGAm
mientras que en la ventana, se escurre el tiempo,

*Guitarra 1:
1. -----0---0h1------------------|
2. -----1---1---1p0-------0------|
3. -----2-2---------2---2---2----|
4. ---2---------------2-------2--|
5. -0----------------------------|
6. ------------------------------|


*Guitarra 2:
1. ----------------------------------5--|
2. -----12h14-9-7-12h14-9-7-12h14-9--0--|
3. -5-7------------------------------0--|
4. -------------------------------------|
5. -------------------------------------|
6. -------------------------------------|


se escurre el tiempo,

*Guitarra 1:
1. -----0---0h1------------------|
2. -----1---1---1p0-------0------|
3. -----2-2---------2---2---2----|
4. ---2---------------2-------2--|
5. -0----------------------------|
6. ------------------------------|


*Guitarra 2:
1. ----------------------------------7-7h8-7-5--|
2. -----12h14-9-7-12h14-9-7-12h14-9-------------|
3. -5-7-----------------------------------------|
4. ---------------------------------------------|
5. ---------------------------------------------|
6. ---------------------------------------------|


a cara o cruz,

*Guitarra 1:
1. --------------|
2. -------0------|
3. -----2---2----|
4. ---2-------2--|
5. -0------------|
6. --------------|


*Guitarra 2:
1. -----------------------------------5h7--|
2. -9-9-12h14-12-9-14-12-9-12h14-12-9------|
3. ----------------------------------------|
4. ----------------------------------------|
5. ----------------------------------------|
6. ----------------------------------------|				



Am C F G
variations - click chord images
Transpose chords:
Tuning:
Cool service:
View: Size:
A  A  A
Rating:
Layout:
  • Currently 1.6/5 Stars.
  • 1
  • 2
  • 3
  • 4
  • 5
 
Accuracy:
  • Currently 1.8/5 Stars.
  • 1
  • 2
  • 3
  • 4
  • 5
 
click stars to rate
Chordie recommends:
Learn how to play guitar at JamPlay.com
Songbook:
Login to add this song to your songbook
Support the artist
Preview/buy this song
MSN Music
Why this non-profit ad?

 
login to add comments/video/corrections