Chordie logo


Por Que Es Tan Cruel El Amor   Ricardo Arjona



ntro


E----------------------------------------------|
A----------------------------------------------|
D----------------------------------------------|
G----------------------------------------------|
B----------------------------------------------|
e--7-9-10-10s12-12-10-10-9-9-7-7s9-------------|


E----------------------------------------------|
A----------------------------------------------|
D----------------------------------------------|
G----------------------------------------------|
B----------------------------------------------|
e--7-9-10-10s12-12-10-10-9-9-7-7-5-------------|


a mediados de la canción


E----------------------------------------------|
A----------------------------------------------|
D----------------------------------------------|
G----------------------------------------------|
B----------------------------------------------|
e--4-5-7-7-9-10-10s12-12-10-10-9-9s10-7-7s9----|


E----------------------------------------------|
A----------------------------------------------|
D----------------------------------------------|
G----------------------------------------------|
B----------------------------------------------|
e--7-9-10-10s12-12-10-10-9-9-7-7-5-------------|


la parte final


E----------------------------------------------|
A----------------------------------------------|
D----------------------------------------------|
G----------------------------------------------|
B----------------------------------------------|
e--5-7-9-10-10s12-12-10-10-9-9-7-7s9-----------|


E----------------------------------------------|
A----------------------------------------------|
D----------------------------------------------|
G----------------------------------------------|
B----------------------------------------------|
e--7-9-10-10s12-12-10-10-9-9-7-7-5-------------|


E----------------------------------------------|
A----------------------------------------------|
D----------------------------------------------|
G----------------------------------------------|
B--2-3-5---------------------------------------|
e--------4-5-7-7-9-10s12-12s14-12-12-10-10-9---|


E----------------------------------------------|
A----------------------------------------------|
D----------------------------------------------|
G----------------------------------------------|
B----------------------------------------------|
e--7-7s9-9-9-9---------------------------------|


E----------------------------------------------|
A----------------------------------------------|
D----------------------------------------------|
G----------------------------------------------|
B----------------------------------------------|
e--7-9-10-10s12-12-10-10-9-9-7-7-5-------------|


E----------------------------------------------|
A----------------------------------------------|
D----------------------------------------------|
G----------------------------------------------|
B--2-3-5-2-3-5---------------------------------|
e--------------4-5-7-4-5-7-7-9-10--------------|


E----------------------------------------------|
A----------------------------------------------|
D----------------------------------------------|
G----------------------------------------------|
B----------------------------------------------|


Important: The song above is NOT stored on the Chordie server. The original song is hosted at www.guitaretab.com. Chordie works as a search engine and provides on-the-fly formatting. Chordie does not index songs against artists/composers will. To remove this song please click here.

This song is displayed as text-only. Transposing and tuning is only available for chordpro-songs.

Login - add to songbook

Rating click stars to rate

Layout
Accuracy

SHARE PAGE  




You need to log in to post comments